Again

[email protected] 

Introdução 
G|-----------------------------------------------------| 
D|-----------------------------------------------------| 
A|-----------------------------------/7-777-777-777-5--| 
E|-5-555-555-555-4--2-222-222-222-1--------------------| 

Verso1 
G|-----------------------------------------------------| 
D|-----------------------------------------------------| 
A|-5-555-555-555-5--7-777-7h9-999-9--------------------| 
E|-----------------------------------------------------| 

G|-----------------------------------------------------| 
D|-----------------------------------------------------| 
A|-5-555-555-555-5-------------------------------------| 
E|------------------0-000-0h2-222-2--------------------| 

Refrão1 
G|---------------------------------------------------------------------| 
D|---------------------------------------------------------------------| 
A|----------------------------------/7-777-777-777-7-5-555-555-555-5h7-| 
E|-5-555-555-555-4-2-222-222-222-1-------------------------------------| 

G|---------------------------------------------------------------------| 
D|---------------------------------------------------------------------| 
A|------------------------------/987-777-777-777-7-5-555-555-5---------| 
E|-5-555-555-555-4-2-222-222-22----------------------------------------| 

Verso 2 ( igual ao verso 1) 

Refrão 2 
G|---------------------------------------------------------------------| 
D|---------------------------------------------------------------------| 
A|----------------------------------/7-777-777-777-7-5-555-555-555-5h7-| 
E|-5-555-555-555-4-2-222-222-222-1-------------------------------------| 

G|---------------------------------------------------------------------| 
D|---------------------------------------------------------------------| 
A|----------------------------------/7-777-777-777-65------------------| 
E|-5-555-555-555-4-2-222-222-222-1--------------------22345------------| 

Leave a Comment

Your email address will not be published. Required fields are marked *

Scroll to Top