Akin Ka Na Lang

        Akin Ka Na Lang By Itchyworms
        Tabbed By Ayie Visitacion


Standard Tuning

  Intro
G|------------------------------------------|     |----------------------|
D|-----5-----2------------------------------|3x   |-----5-----2---2-0----|
A|-------------3-3--3-5-3-5-3---------------|then |-------------3--------|
E|-3-3---0-0--------------------------------|     |-3-3---0-0------------|

1st stanza
G|------------------------------------------|
D|------------------------------------------|2x
A|------7-7-----5-5/-10-10-7-7-----5-5-----|
E|-3-3/-----8-8-----------------5-5---------|

G|------------------------------------------|
D|---------------5-7--7-7------------------|
A|---2/7--7---7----------------------------|
E|-0---------0------------------------------|

G|-------------------------------7---------|
D|-----------------------------7------------|
A|-0-0-0-0-2-2-2-2-3-3-3-3-5-5--------------|
E|------------------------------------------|

  Chorus
G|------------------------------------------|
D|---5-54-----------------------------------|
A|--------5-2--0h2-3h5-3--3--3-5-5--5------|
E|-3-------------------------3------5-------|

G|------------------------------------------|
D|---5-54-----------------------------------|
A|--------5-2--0h2-3h5-3--3--3-5----------|
E|-3-------------------------3--------------|

  Intro
G|----------------------------|----------------------|
D|-----5-----2----------------|-----5-----2---2-0----|
A|-------------3-3--3-5-3-5-3-|-------------3--------|
E|-3-3---0-0------------------|-3-3---0-0------------|

  2nd Stanza
G|------------------------------------------|
D|------------------------------------------|2x
A|------7-7-----5-5/-10-10-7-7-----5-5-----|
E|-3-3/-----8-8-----------------5-5---------|

G|------------------------------------------|
D|---------------5-7--9-9-7----------------|
A|---2/7--7---7----------------------------|
E|-0-----7---0------------------------------|

G|---------------------------------------------|
D|---------------------------------------------|
A|-0-0-0-0-2-2-2-2-3-3-3-3-5--5---5--5-75------|
E|-------------------------------5--------75---|

  Chorus
G|------------------------------------------|
D|---5-54-----------------------------------|
A|--------5-2--0h2-3h5-3--3--3-5-5--5------|
E|-3-------------------------3------5-------|

G|------------------------------------------|
D|---5-54-----------------------------------|
A|--------5-2--0h2-3h5-3--3--3-5----------|
E|-3-------------------------3--------------|

  Bridge
G|------------------------------------------|
D|-----------3-5/7-5----5-------------------|
A|-6-5-3---5----------3---------------------|
E|-------6-----------3----1/-6--6----------|

G|-----------------------------------------------|
D|-----------34-5--------------------------------|
A|-6-5-3---5-------11111111/-555555555-55555555--|
E|-------6----------------------------5----------|

  Chorus
G|---------------------------------7-7------|
D|---5-54-------------------------7---7-----|
A|--------5-2--0h2-3h5-3--3--3-5-----------|
E|-3-------------------------3--------------|

G|------------------------------------------|
D|---5-54-----------------------------------|
A|--------5-2--0h2-3h5-3--3--3-5-5h7-5-----|
E|-3-------------------------3---------7----|

G|----------------------------5-----7-7-----|
D|---5-54--------------------5-----7---7----|
A|--------5-2--0h2-3h5-3--3----5-----------|
E|-3----------------------------------------|

G|------------------------------------------|
D|---5-54-----------------------------------|
A|--------5-2--0h2-3h5-3--3----5-----7---|
E|-3-------------------------3------5/7-----|

  Outro
G|------------------------------------------|
D|-----5-----2------------------------------|3x
A|-------------3-3--3-5-3-5-3---------------|
E|-3-3---0-0--------------------------------|

G|------------------------------------------|
D|-----5-----2---2-0--2-0-------------------|
A|-------------3----------------------------|
E|-3-3---0-0---------------3----------------|


Enjoy!!!

| /  slide up
|   slide down
| h  hammer-on
| p  pull-off
| ~  vibrato
| +  harmonic
| x  Mute note

Leave a Comment

Your email address will not be published. Required fields are marked *

Scroll to Top