All My Loving (Solo Real)

Solo:               A                       E                      B7 
e|-----------5---9-7-5-------7-5------ 
B|-------------5-------9-5-9-----9-7-- 
G|-----------6---9-8-6-------8-6------ 
D|-------------7-------9-6-9-----9-7-- 
A|---------0-------------------------- 
E|-0-0-2-4---------------------------- 
                    E 
e|-----9-5-9-0-----0----0-0----------- 
B|---7-------------0----0-0----------- 
G|-6---9-6-9-1--0h1--0h1--1----------- 
D|---7-------------------------------- 
A|-7---------------------------------- 
E|-----------0------------0----------- 
 
 

Leave a Comment

Your email address will not be published. Required fields are marked *

Scroll to Top