Anjo

Introdução e final da música "Anjo" do Roupa Nova. 
Tom: D 
 
 
E-------------------------------------------------------------------------------------------------------------------------------------------- 
A ------------------------------------------------------------------------------------------------------------------------------------------- 
D -----------------------------------------------------------------9----------7-------9-------7------------------------------------------ 
G ----------------------------------------------9--------7--------------------------------------------9----------------------------------- 
B ----7--------10------------------10-----------------------------------------------------------------------7--------------------------- 
e ---------------------------7---------------------------------------------------------------------------------------------------------------- 
 
E ------------------------------------------------------------------------------------------------------------------------------------------- 
A ------------------------------------------------------------------------------------------------------------------------------------------- 
D ---9--------------------------------------------------------------------------7-------9p7---------9----------------------------------- 
G ---------------6--------7--------9-------------------------------------------------------------------------------7---------------------- 
B ----------------------------------------------7--------8--------10---------------------------------------------------------------------- 
e -------------------------------------------------------------------------------------------------------------------------------------------- 
 
 
 
 

Leave a Comment

Your email address will not be published. Required fields are marked *

Scroll to Top