Anna Júlia (solo)

Los Hermanos _ Anna Júlia 
Tom: E 
Solo: 
 
 
e|--------------------------------------------------------------------------------------------| 
B|--------------------------------------------------5-5-5-7-5--5-5-5-7--5-4-5-----------------| 
G|-----------------------------------------------------------------------------7/2------------| 
D|-2-2-2-4-2--2-2-2-4-2-1-2-2-2-4-2--2-2-2-4-2-1-2--------------------------------------------| 
A|----------------------------------------------------------------------------------2-4-2-4---| 
E|--------------------------------------------------------------------------------------------| 
 
e|-----------------------------------------------------------------------| 
B|----------------5-4~~--------------------------------------------------| 
G|----------------------4--6-------4-----4-------------------------------| 
D|------------------------------------7----------------------------------| 
A|----------------------------------------------------2-4-2-4------------| 
E|-----------------------------------------------------------------------| 
 
e|----------12-11---------------11-12--14-14-14-14...--------------------| 
B|-----------------12--14------------------------------------------------| 
G|-----------------------------------------------------------------------| 
D|-----------------------------------------------------------------------| 
A|-----------------------------------------------------------------------| 
E|-----------------------------------------------------------------------|  
 
 
 
  
_____________________________________________________________ 
 
 
 

Leave a Comment

Your email address will not be published. Required fields are marked *

Scroll to Top