Battle ! [Saturos] (Golden Sun: The Lost Age) Guitar Tab

> Battle ! [Saturos]  <

Game: Golden Sun (1&2)
Composer : Motoi Sakuraba

Tabbed by : Gloups
Date : 12.29.2009

BPM : 170 

                             / 
e||--------------------------|---------------------------------
B||--------------------------|---------------------------------
G||--9--9-9-9--10--10-10-10--|.--------------------------------
D||--9--9-9-9--10--10-10-10--|.--5-4-5-7-5-4-5-----4-5-7-------
A||--7--7-7-7--8---8--8--8---|------------------7--------------
E||--------------------------|---------------------------------
                             


e||-----------------------------------------------------------
B||-----------------------------------------------------5-----
G||-/7--5--4---4---4---4--4---4--5--7---5-4-5-7-5-4-5------7--
D||--------------7--------------------------------------------
A||-----------------------------------------------------------
E||-----------------------------------------------------------


                                                                      x2                  
                                        /! Super-fast sweeping!  /!    
e||-----------------------------------|----------5-7-4-5-7--5------------|
B||-----------/8--6--5---5--6--5---5--|--------5-----------5--5----------|
G||--7--7--------------7---------7----|------7--------------------------.|
D||--------5--------------------------|----7----------------------------.|
A||-----------------------------------|--7-------------------------------|
E||-----------------------------------|----------------------------------|
                                  (skipable, just play 7 on the e string)/    


         h po                               h     bend+1(hold)
e||-----------------------------------------------------------
B||-----------------------------------------------------------
G||-----------------------------------------------------------
D||--7--6-7-6--6-------6-----6---7-6---6--6-7-6-7--9b---------
A||---------------9--7-----9---9-----9------------------------
E||-----------------------------------------------------------    


  (release) b+1(hold) (release)   bend+1
e||-----------------------------------------------------------
B||-----------------------------------------------------------
G||-----------------------------------------9-----------------
D||--9b-----9b---------9b---------7b--------------------------
A||-----------------------------------------------------------
E||-----------------------------------------------------------           


    /                                              x2 
e||-|------------------------------------------9------|---------
B||-|-/10--10--9-------------9-10-10--12-10-12--------|---------
G||-|------------11--9-9--11----------------------11--|---------
D||-|-------------------------------------------------|---------
A||-|-------------------------------------------------|---------
E||-|-------------------------------------------------|---------
                                                     /


    /               x8   
e||-|--------------------|--------------------------------------
B||-|-9-9-----9-----9----|------9------9--10--9-----------------
G||-|------11-----11--11-|----------11----------11--------------
D||-|--------------------|---11---------------------------------
A||-|--------------------|--------------------------------------
E||-|--------------------|--------------------------------------           
                        /



e||---------------------9--------------------------------------
B||-----9----9--10--12-----------------------------------------
G||-------11----------------9-9--9-9--9-9---10-----------------
D||--11---------------------9-9--9-9--9-9---10-----------------
A||-------------------------7-7--7-7--7-7---8------------------
E||------------------------------------------------------------           


 Same as before...
    /                                              x2 
e||-|------------------------------------------9------|---------
B||-|-/10--10--9-------------9-10-10--12-10-12--------|---------
G||-|------------11--9-9--11----------------------11--|---------
D||-|-------------------------------------------------|---------
A||-|-------------------------------------------------|---------
E||-|-------------------------------------------------|---------
                                                     /


e||-----------------------------------------------------------
B||-----------------------------------------------------------
G||--9--------------9--------9-9---9------12--11--9-----------
D||--9----12----9---9---12---9-9------12-------------12--10---
A||-----------------------------------------------------------
E||-----------------------------------------------------------           


e||------------12---------------------------------------------
B||-------12--------------------------------------------------
G||-----------------------------------------------------------
D||--9--------------------------------------------------------
A||-----------------------------------------------------------
E||-----------------------------------------------------------

                    ...and back to start. :)      

Leave a Comment

Your email address will not be published. Required fields are marked *

Scroll to Top