Bombtrack

[email protected] 

Introdução 
G:-----------------------------0-|         
D:---2-0---0---------2-0---0-2---|         | 
A:-------2---2-0---------2-------|         | 
E:-0-------------3-0-------------|           (3x) 
                                            / 
G:-------------------------------------|   | 
D:---2-0---0-----------2-0---0---------|   | 
A:-------2---2-0-----------2---2-0-----|   | 
E:-0-------------3-2-0-------------3-0-|  / 



G:-----------------------------0-| 
D:---2-0---0---------2-0---0-2---| 
A:-------2---2-0---------2-------| 
E:-0-------------3-0-------------| 

G:---------------------------------| 
D:---2-0---0-----------------------| 
A:-------2---2-0-------------------| 
E:-0-------------3-0-0-0-0-0-0-0-0-| 

Refrão 
G:-------------------------------------| 
D:-----4---------4-2-----4-------6-5-4-|  (3x) 
A:-------------------------------4-3-2-| 
E:-0-2---0-2-0-2-----0-2---0-2-0-------| 


G:-------------------------------------| 
D:-----4---------4-2-----4-------6~----|  (1x) 
A:-------------------------------4~----| 
E:-0-2---0-2-0-2-----0-2---0-2-0-------| 
"It goes a one, two, three" 

Verso 1 
G:---------------------------------------| 
D:---------------------------4-2---------|  (3x) 
A:---------------0---------------4-3-2-0-| 
E:-2-2-0-2-2-2-2---2-2-0-2-0-------------| 

G:---------------------------------------| 
D:---------------------------------------|   
A:---------------0-----------------------| 
E:-2-2-0-2-2-2-2---2-2-0-2-2-------------| 


G:---------------------------------------| 
D:---------------------------4-2---------|  (3x) 
A:---------------0---------------4-3-2-0-| 
E:-2-2-0-2-2---2---2-2-0-2-0-------------| 

G:---------------------------------------| 
D:---------------------------------------|   
A:---------------0-----------------------| 
E:-2-2-0-2-2-2-2---2-2-0-2-2-------------| 


Refrão 
G:-------------------------------------| 
D:-----4---------4-2-----4-------6-5-4-|  (3x) 
A:-------------------------------4-3-2-| 
E:-0-2---0-2-0-2-----0-2---0-2-0-------| 


G:-------------------------------------| 
D:-----4---------4-2-----4-------6~----|  (1x) 
A:-------------------------------4~----| 
E:-0-2---0-2-0-2-----0-2---0-2-0-------| 


Verso 2: 
G:---------------------------------------| 
D:---------------------------4-2---------|  (3x) 
A:---------------0---------------4-3-2-0-| 
E:-2-2-0-2-2-2-2---2-2-0-2-0-------------| 

G:---------------------------------------| 
D:---------------------------------------|   
A:---------------0-----------------------| 
E:-2-2-0-2-2-2-2---2-2-0-2-2-------------| 


Refrão 
G:-------------------------------------| 
D:-----4---------4-2-----4-------6-5-4-|  (4x) 
A:-------------------------------4-3-2-| 
E:-0-2---0-2-0-2-----0-2---0-2-0-------| 


Intervalo 
G:---------------------------------| 
D:---------------------------------|   
A:---------------------------------| 
E:-0-0-0-0-0-0-0-0-0-0-0-0-0-0-0-0-| 

G:---------------------------------| 
D:-----------------2-2-2-2-2-2-2-2-| 
A:---------------------------------| 
E:-0-0-0-0-0-0-0-0-----------------| 

G:-----------------------------------------------------| 
D:-----------------------------------------------------|  (4x) 
A:---------0---------------------0---------4-0-3-0-2-0-| 
E:-2-0-2-0---2-0-2-0-2---2-0-2-0---2-0-2-0-------------| 

Refrão 
G:-------------------------------------| 
D:-----4---------4-2-----4-------------|  (3x) 
A:-------------------------------4-3-2-| 
E:-0-2---0-2-0-2-----0-2---0-2-0-------| 


G:-------------------------------------------| 
D:-----4---------4-2-----4-------6-5-4-------|  (1x) 
A:-------------------------------4-3-2-9-8-7-| 
E:-0-2---0-2-0-2-----0-2---0-2-0-------7-6-5-|  

Leave a Comment

Your email address will not be published. Required fields are marked *

Scroll to Top