Breezy (Final Fantasy VIII) Guitar Tab

Final Fantasy VIII
Breezy (Balamb Town)
composed by Nobuo Uematsu
tabbed by musenji, 2006


This tab maximizes crossover, because that's what makes it sound smooth and breezy!  It's
not quite as easy to play, but hopefully still very doable.

"1st", "2nd":  Play the line once with the first ending, then once with the second ending.

Both of the chords should be strummed (or arpeggiated).

The "232" is a hammer-on/pull-off.

< > marks a harmonic.

Enjoy!

                                                     1st              2nd

e|------2-------2-|------2-------2-|------0-------0-|------3-------3-|3-----2-----0----|
B|----0-----0-----|----0-----0-----|----0-----0-----|----0-----0-----|----3-----3------|
G|--2---------2---|--2---------2---|--0---------0---|--0---------0---|--4-----2------3-|
D|0---------------|0---------------|0---------------|0---------------|0-----0-----5----|
A|----------------|----------------|----------------|----------------|-----------------|
E|----------------|----------------|----------------|----------------|-----------------|


e|------2-------2-|------232-----2-|------0-------0-|------3-----3---|
B|----2-----2-----|----2-----2-----|----3-----3-----|--2-----2-----2-|
G|--2---------2---|--2---------2---|--0---------0---|----4-----4-----|
D|0---------------|0---------------|0---------------|0---------------|
A|----------------|----------------|----------------|----------------|
E|----------------|----------------|----------------|----------------|


e|------2-------2-|5-----3-----2---|3-----2-----3---|0---------------|
B|----2-----2-----|----0---0-------|----0-----0-----|2---------------|
G|--2---------2---|--5-------5---5-|--0-----0-----0-|2---------------|
D|0---------------|0---------------|2-----0-----0---|2---------------|
A|----------------|----------------|----------------|----------------|
E|----------------|----------------|----------------|----------------|


                                                     1st              2nd
                                                   
e|2-----2-------2-|5-----5-------5-|7-----7-------7-|5-----5-------5-|5---------------|
B|--3-------3-----|--6-------6-----|--8-------8-----|--7-------7-----|---<7>----------|
G|----2-------2---|----5-------5---|----7-------7---|----7-------7---|-------<7>------|
D|0---------------|0---------------|0---------------|0---------------|-----------<7>--|
A|----------------|----------------|----------------|----------------|----------------|
E|----------------|----------------|----------------|----------------|----------------|


e|------3---------|5-----3---------|------3---------|5-----3---------|
B|----3-----3---3-|--3-------3---3-|----3-----3---3-|--3-------3---3-|
G|--4---------4---|----4-------4---|--3---------3---|----3-------3---|
D|0---------------|0---------------|0---------------|0---------------|
A|----------------|----------------|----------------|----------------|
E|----------------|----------------|----------------|----------------|


e|------2-------2-|------2-------2-|------0---------|3---------------|
B|----0-------0---|----0-------0---|----3-----3---3-|3---------------|
G|--2-------2-----|--2-------2-----|--3---------3---|3---------------|
D|0---------------|----------------|0---------------|0---------------|
A|----------------|----------------|----------------|----------------|
E|----------------|----------------|----------------|----------------|

Leave a Comment

Your email address will not be published. Required fields are marked *

Scroll to Top