Broken Things

Intro/fill between verses 

e|----------------------------| 
B|----------------------------| 
G|-------------------7~-------| 
D|-------5------7~---7~-------| (4x)
A|--5/7-----7--------5~-------| 
E|----------------------------| 


Verse (The timing is very similar to Gray Sreet/Trippin Billies) 

e|----------------------------------| 
B|----------------------------------| 
G|--7----6----4----2----4----6------|  (4x)
D|--X----X----X----X----X----X------| 
A|--5----4----2----0----2----4------| 
E|--7----5----3----2----3----5------|


Chorus 

e|-(5)-------(5)-----------------------| 
B|--3----3----2------------------------| 
G|--0----0----2------------------------| (2x)
D|--4----4----2------------------------| 
A|--5----2----0------------------------|
E|-------------------------------------| 


Chorus Ends with: 

e|-------------------------------------| 
B|--8---------1---------3----3---------| 
G|--7---------0---------0----2---------|  (2x) 
D|--5---------2---------0----0---------|
A|--7---------3---------X----X---------| 
E|----------------------3----2---------| 


  

Leave a Comment

Your email address will not be published. Required fields are marked *

Scroll to Top