Can’t Wait to be King (The Lion King) Guitar Tab

Can't Wait to be King
From The Lion King (SNES)
Adapted for the SNES by Frank Klepacki
Arranged by Brent Quinn

Tempo ~ 190
Standard Tuning
Capo 2
4/4 Time
    

    E.   S  E   Q    Q    E     Q    Q    H       E.   S  E   Q    Q    E     Q    Q    H      										 
E||-------------0----0----0---|-----------------|-------------0----0----0---|-2---------------||
B||---------0-----------------|-2---------0-----|---------0-----------------|------4----0-----||Repeat x1
G||------1--------------------|------2----------|------1--------------------|-----------------||
D||-2-------------------------|-----------------|-2-------------------------|-----------------||
A||---------------------------|-----------------|---------------------------|-----------------||
E||---------------------------|-----------------|---------------------------|-----------------||


    E.   S  E   Q    Q    E     Q    Q    H       E.   S  E   Q    Q    E     Q    Q    H 												
E||-------------0----0----0---|-----------------|-------------0----0----0---|-2---------------||
B||---------0-----------------|-2---------0-----|---------0-----------------|------4----0-----||Repeat x1
G||------1--------------------|------2----------|------1--------------------|-----------------||
D||-2-------------------------|-----------------|-2-------------------------|-----------------||
A||---------------------------|-----------------|---------------------------|-2---------------||
E||-0-------------------------|-0---------------|-0-------------------------|-----------------||


   Q.    Q.    E.   S    Q    E   E   Q.    E     Q    Q    E   Q    E     E.   S  Q    H     E
E|-------0-----2----0--|-4----2---0-------------|-0---------0---2----0---|-L----------------------|
B|-0-------------------|--------------------2---|------2-----------------|--------------------0---|
G|---------------------|------------------------|------------------------|------------------------|
D|---------------------|------------------------|------------------------|---------2----2---------|
A|---------------------|-4------------2---------|------------------------|-2----4-----------------|
E|-0-------------------|------------------------|-0----------------------|------------------------|

								           
   Q.    Q.    E.   S    Q    E   E   Q.    E     Q    Q    E   Q    E     H.     E									      
E|-------0-----2----0--|-3----2---0-------------|-0---------0------------|-------------|
B|-2-------------------|--------------------2---|------2--------2----0---|-L------0----|
G|---------------------|------------------------|------------------------|-------------|
D|---------------------|-4------------2---------|------------------------|-------------|
A|-0-------------------|------------------------|-0----------------------|-------------|
E|---------------------|------------------------|------------------------|-0-----------|


   Q.    Q.    E.   S    Q    E   E   Q.    E     Q    Q    E   Q    E     E.   S  Q    H     E
E|-------0-----2----0--|-4----2---0-------------|-0---------0---2----0---|-L----------------------|
B|-0-------------------|--------------------2---|------2-----------------|--------------------0---|
G|---------------------|------------------------|------------------------|------------------------|
D|---------------------|------------------------|------------------------|---------2----2---------|
A|---------------------|-4------------2---------|------------------------|-2----4-----------------|
E|-0-------------------|------------------------|-0----------------------|------------------------|

								           
   Q.    Q.    E.   S    Q    E   E   Q.    E     Q    Q    E   Q    E     H.     E									      
E|-------0-----2----0--|-3----2---0-------------|-0---------0------------|--------0----|
B|-2-------------------|--------------------2---|------2--------2----0---|-L-----------|
G|---------------------|------------------------|------------------------|-------------|
D|---------------------|-4------------2---------|------------------------|-------------|
A|-0-------------------|------------------------|-0----------------------|-------------|
E|---------------------|------------------------|------------------------|-0-----------|
   
	                                               |---3---|   |---3---|
   H     Q    Q      Q    Q    E.   S  E   E     H     E   E   E   E   E   E 
E|-2-----2----0----|-2----0----5----4--0---2---|-L-----------------2---4---5---|
B|-----------------|---------------------------|-------2---4---5---------------|
G|-----------------|---------------------------|-------------------------------|
D|-----------------|---------------------------|-------------------------------|
A|-----------------|-----------0-----------2---|-L-----------------------------|
E|-2-----2---------|-2-------------------------|-------------------------------|


   E      Q.       Q    Q      Q    Q    Q    Q      Q    Q    Q    Q      E.   S  E   Q    Q    E
E|-7--------------------0----|-3---------2----0----|-7--------------0----|-0-----------0----0----0---|
B|-----------------2---------|---------------------|-----------2---------|---------0-----------------|
G|---------------------------|---------------------|---------------------|------1--------------------|
D|---------------------------|---------------------|----------------2----|-2-------------------------|
A|---------------------------|-0----0--------------|------2----4---------|---------------------------|
E|-7-------------------------|-----------2----0----|-7-------------------|-0-------------------------|


   Q    Q    E.     S  Q      E.   S  E   Q    Q    E       H       E.   S  E
E|--------------------------|-------------0----0----0---|-------------------0----|
B|-2---------0--------------|---------0-----------------|-----------0----2-------|
G|------2-------------------|------1--------------------|------------------------|
D|------------------2-------|-2-------------------------|------------------------|
A|--------------------------|---------------------------|------------------------|
E|-0-------------------4----|-0-------------------------|------------------------|


   Q.    S   Q    Q      H         E.   S  Q      Q.    S   H           H     E.   S  Q
E|-2-----0-------------|-------------------0----|-4-----2-------------|---------------0----|
B|---------------------|-----------0----2-------|---------------------|-------0----2-------|
G|---------------------|------------------------|---------------------|--------------------|
D|---------------------|-------------------2----|-4-------------------|-4-----2------------|
A|-0-------------------|-0---------2------------|-----------4---------|--------------------|
E|-----------2----0----|------------------------|---------------------|--------------------|


   Q.    S   H              H     E.   S  Q      Q.    S   E.   S  Q         H     Q    Q 
E|-4-----2----------------|---------------0----|-5-----4-------------------|-----------------|
B|------------------------|-------0----2-------|---------------------------|------------0----|
G|------------------------|--------------------|---------------------------|-----------------|
D|-1----------------------|--------------------|-------------------2-------|-----------------|
A|-----------4------------|-2-----0------------|-----------2----4----------|-----2g4----2----|
E|------------------------|---------------4----|-0-------------------------|-0---------------|


   Q    Q    Q    Q      H     E.   S  E   E     Q.    E   Q    Q      E   E   Q    Q    Q
E|------0----0---------|-0-----4----2--0---2---|-L-------------------|-L----------------------|
B|-2--------------2----|-----------------------|---------------------|------------------------|
G|---------------------|-----------------------|---------------------|------------------------|
D|---------------------|-----------------------|---------4g6----4----|-L-------1--------------|
A|-0-------------------|-------0---------------|-2-----2-------------|-----2--------4----2----|
E|-----------4---------|-2---------------------|---------------------|------------------------|

								    |---3---|   |---3---|   |---3---|
   H     Q    Q      H     H       E.   S  E   Q    Q    E      Q   E   E   E   E   E   E   E   E   E   
E|-3-----2----0----|-2-----4-----|-0-----------0----0----0---|--------------0---4---0-------------------|
B|-----------------|-------------|---------0-----------------|------0---2---------------2---------------|
G|-----------------|-------------|------1--------------------|------------------------------4---2---1---|
D|-----------------|-------------|-2-------------------------|------------------------------------------|
A|-0---------------|-2-----------|---------------------------|------------------------------------------|
E|-------2---------|-------4-----|-0-------------------------|------------------------------------------|


   Q.    Q.    E.   S    Q    E   E   Q.    E     Q    Q    E   Q    E     E.   S  Q    H     E
E|-------0-----2----0--|-4----2---0-------------|-0---------0---2----0---|-L----------------------|
B|-0-------------------|--------------------2---|------2-----------------|--------------------0---|
G|---------------------|------------------------|------------------------|------------------------|
D|---------------------|------------------------|------------------------|---------2----2---------|
A|---------------------|-4------------2---------|------------------------|-2----4-----------------|
E|-0-------------------|------------------------|-0----------------------|------------------------|

 								           
   Q.    Q.    E.   S    Q    E   E   Q.    E     Q    Q    E   Q    E     H.     Q
E|-------0-----2----0--|-3----2---0-------------|-0---------0------------|-------------|
B|-2-------------------|--------------------2---|------2--------2----0---|-L------0----|
G|---------------------|------------------------|------------------------|-------------|
D|---------------------|-4------------2---------|------------------------|-------------|
A|-0-------------------|------------------------|-0----------------------|-------------|
E|---------------------|------------------------|------------------------|-0-----------|


   Q.    Q.    E.   S    Q    E   E   Q.    E     Q    Q    E   Q    E     E.   S  Q    H     E
E|-------0-----2----0--|-4----2---0-------------|-0---------0---2----0---|-L----------------------|
B|-0-------------------|--------------------2---|------2-----------------|--------------------0---|
G|---------------------|------------------------|------------------------|------------------------|
D|---------------------|------------------------|------------------------|---------2----2---------|
A|---------------------|-4------------2---------|------------------------|-2----4-----------------|
E|-0-------------------|------------------------|-0----------------------|------------------------|

 								           
   Q.    Q.    E.   S    Q    E   E   Q.    E     Q    Q    E   Q    E     H.     Q
E|-------0-----2----0--|-3----2---0-------------|-0---------0------------|--------0----|
B|-2-------------------|--------------------2---|------2--------2----0---|-L-----------|
G|---------------------|------------------------|------------------------|-------------|
D|---------------------|-4------------2---------|------------------------|-------------|
A|-0-------------------|------------------------|-0----------------------|-------------|
E|---------------------|------------------------|------------------------|-0-----------|

						       |---3---|   |---3---|
   H     Q    Q      Q    Q    E.   S  E   E     H     E   E   E   E   E   E 
E|-2-----2----0----|-2----0----5----4--0---2---|-2-----------------2---4---5---|
B|-----------------|---------------------------|-------2---4---5---------------|
G|-----------------|---------------------------|-------------------------------|
D|-----------------|---------------------------|-------------------------------|
A|-----------------|-----------0-----------2---|-2-----------------------------|
E|-2-----2---------|-2-------------------------|-------------------------------|


   E     Q.        Q    Q      Q    Q    Q    Q      Q    Q    Q    Q      E.   S  E   Q    Q    E
E|-7--------------------0----|-3---------2----0----|-7--------------0----|-0-----------0----0----0---|
B|-----------------2---------|---------------------|-----------2---------|---------0-----------------|
G|---------------------------|---------------------|---------------------|------1--------------------|
D|---------------------------|---------------------|----------------2----|-2-------------------------|
A|---------------------------|-0----0--------------|------2----4---------|---------------------------|
E|-7-------------------------|-----------2----0----|-7-------------------|-0-------------------------|


   Q    Q    E.     S  Q      Q    Q    Q    Q      Q    Q    Q    Q      W        W
E|--------------------------|-3---------2----0----|-7--------------0----|-0------|-L------|
B|-2---------0--------------|---------------------|-----------2---------|--------|--------|
G|------2-------------------|---------------------|---------------------|--------|--------|
D|------------------2-------|---------------------|----------------2----|--------|--------| Repeat as Necessary
A|--------------------------|-0----0--------------|------2----4---------|--------|--------|
E|-0-------------------4----|-----------2----0----|-7-------------------|-0------|-L------|



|Key|
W = Whole Note
H = Half
Q = Quarter
E = Eighth
S = Sixteenth
. = Dotted Note
L = Sustain Note
g = Grace Note
|-3-| = Triplet notes




Leave a Comment

Your email address will not be published. Required fields are marked *

Scroll to Top