Ch-Check It Out

-----------------------------------------------------------------
CH-CHECK IT OUT - Beastie Boys
-----------------------------------------------------------------

Tabbed By : MRFairbrother

Tuning: Standard

Intro - (no bass)

G|---------------|
D|---------------|
A|---------------|
E|---------------|

Verse 1
                              (3x)
G|---------------|---------------|---------------|---------------|
D|---------------|---------------|---------------|---------------|
A|---------------|---------------|---------------|---------------|
E|-6-----------6-|-6-------------|-6-----------6-|-6--6--6--6----|

                              (3x)
G|---------------|---------------|---------------|---------------|
D|---------------|---------------|---------------|---------------|
A|---------------|---------------|---------------|---------------|
E|-6-----------6-|-6-------------|-6-----------6-|-6--6-6--6-6---|

                              (3x)
G|---------------|---------------|---------------|---------------|
D|---------------|---------------|---------------|---------------|
A|---------------|---------------|---------------|---------------|
E|-6-----------6-|-6-------------|-6-----------6-|-6--6--6--6----|

Chorus 1

G|---------------|---------------|---------------|---------------|
D|---------------|---------------|---------------|---------------|
A|-8-------------|-8-------------|-8-------------|-8-------------|
E|---------------|---------------|---------------|---------------|

Verse 2
                              (3x)
G|---------------|---------------|---------------|---------------|
D|---------------|---------------|---------------|---------------|
A|---------------|---------------|---------------|---------------|
E|-6-----------6-|-6-------------|-6-----------6-|-6--6--6--6----|

                              (3x)
G|---------------|---------------|---------------|---------------|
D|---------------|---------------|---------------|---------------|
A|---------------|---------------|---------------|---------------|
E|-6-----------6-|-6-------------|-6-----------6-|-6--6-6--6-6---|

                              (3x)
G|---------------|---------------|---------------|---------------|
D|---------------|---------------|---------------|---------------|
A|---------------|---------------|---------------|---------------|
E|-6-----------6-|-6-------------|-6-----------6-|-6--6--6--6----|

Chorus 2
                                                              (2x)
G|---------------|---------------|---------------|---------------|
D|---------------|---------------|---------------|---------------|
A|-8-------------|-8-------------|-8-------------|-8-------------|
E|---------------|---------------|---------------|---------------|

Verse 3
                              (3x)
G|---------------|---------------|---------------|---------------|
D|---------------|---------------|---------------|---------------|
A|---------------|---------------|---------------|---------------|
E|-6-----------6-|-6-------------|-6-----------6-|-6--6--6--6----|

                              (3x)
G|---------------|---------------|---------------|---------------|
D|---------------|---------------|---------------|---------------|
A|---------------|---------------|---------------|---------------|
E|-6-----------6-|-6-------------|-6-----------6-|-6--6-6--6-6---|

                                        (...fresh attire...)
G|---------------|---------------|---------------|---------------|
D|---------------|---------------|---------------|---------------|
A|---------------|---------------|---------------|---------------|
E|-6-----------6-|-6-------------|-6-------------|-----6-6-------|

G|---------------|---------------|---------------|---------------|
D|---------------|---------------|---------------|---------------|
A|---------------|---------------|---------------|---------------|
E|-6-----------6-|-6-------------|-6-----------6-|-6--6--6--6----|

Chorus 3

G|---------------|---------------|---------------|---------------|
D|---------------|---------------|---------------|---------------|
A|-8-------------|-8-------------|-8-------------|-8-------------|
E|---------------|---------------|---------------|---------------|

Outro

G|---------------|---------------|
D|---------------|---------------|
A|---------------|---------------|
E|-6--6-6--6-6---|-6-------------|

Leave a Comment

Your email address will not be published. Required fields are marked *

Scroll to Top