Christie Road

 the chording goes   { powerchords }  
 G F# E C  
 C G 
 here's the tab 
         
 p.m. all the way through the power chords 
   G             F#     E          C 
 --------------------|-------------------------| 
 --------------------|-------------------------| 
 --------------------|-------------------------|      
 --------------------|-------------4-4-4-4-4-4-| 
 -4-4-4-4-4--4-4-3-3-|--2-2-2-2-2--2-2-2-2-2-2-| 
 -2-2-2-2-2--2-2-1-1-|--0-0-0-0-0--------------|                                
  
  D    Dsus2 
 -1----0-------0------| 
 -2------3-------3----| 
 -3--------2-------2--| 
 -0----------0--------| 
 ---------------------| 
 ---------------------| 
 
 When he starts singing "Take me to the place..." you play a C powerchord  
 then a G powerchord 
 
 James Tozer{Stussy} [email protected]puserve.com 
 Compton BBS 204-897-3345 NUP RG4EVER 
 requesting: High Hopes - Pink Floyd - The Division Bell - 1994 
     [email protected] e-mail comments on tablature 
     Christie Road - Green Day - Album - Kerplunk  
     Transcribed by James Oborne Tabbed by James Tozer{Stussy} 
     Song done by Popular demand 
 
     ---============= - Christie Road - ==============--- 
This song is basically power chords, like most of Green Day's songs 
 
the chording goes   { powerchords }  
 G F# E C  
 C G 
 here's the tab 
         
 p.m. all the way through the power chords 
   G             F#     E          C 
 --------------------|-------------------------| 
 --------------------|-------------------------| 
 --------------------|-------------------------|      
 --------------------|-------------4-4-4-4-4-4-| 
 -4-4-4-4-4--4-4-3-3-|--2-2-2-2-2--2-2-2-2-2-2-| 
 -2-2-2-2-2--2-2-1-1-|--0-0-0-0-0--------------|                                
  
  D    Dsus2 
 -1----0-------0------| 
 -2------3-------3----| 
 -3--------2-------2--| 
 -0----------0--------| 
 ---------------------| 
 ---------------------| 
 
 When he starts singing "Take me to the place..." you play a C powerchord  
 then a G powerchord 
 
 James Tozer{Stussy} [email protected] 
 Compton BBS 204-897-3345 NUP RG4EVER 
 requesting: High Hopes - Pink Floyd - The Division Bell - 1994 
 
 

Leave a Comment

Your email address will not be published. Required fields are marked *

Scroll to Top