Dark Messenger (Final Fantasy IX) Bass Tab

                 Final Fantasy 9 - Dark Messenger BASS TAB
                          Song by Nobuo Uematsu

                  Tabbed by auriplane ([email protected])
                                On 5/2/2009

This song needs a five-string bass, but I made a four-string version
with parts moved up an octave.  Scroll down if you want it.


                            FIVE-STRING VERSION

G |----------------|              G |----------------|
D |----------------| x10          D |----------------| x2
A |----------------|              A |----------------|
E |1-1-1-1-1-1-1-1-|              E |4-4-4-4-4-4-4-4-|
B |----------------|              B |----------------|
                                 
G |----------------|----------------|----------------|----------------|
D |----------------|----------------|--1-------------|----------------| x3
A |----------------|--------------1-|3---21--1-------|----------------|
E |1---1-1-4-1-----|--1-4---4-------|------4---4---0-|1---4---1-------|
B |--------------1-|4---------------|------------4---|--4-------------|

G |----------------|----------------|----------------|----------------|
D |----------------|----------------|----------------|----------------|
A |----------------|----------------|----------------|----------------|
E |0---0-0-3-0-----|--0-3---3-2-0---|--------0-2---3-|--3-2-0---------|
B |--------------0-|3-------------3-|2---2-2---------|--------2---0---|

G |----------------|----------------|----------------|----------------|
D |----------------|----------------|----------------|----------------|
A |----------------|----------------|----------------|----------------|
E |4-4---------4-4-|--------4-4-----|4-4---------4-4-|--------4-4-----|
B |----------------|----------------|----------------|----------------|

G |----------------|----------------|----------------|----------------|
D |----------------|----------------|----------------|----------------|
A |----------------|----------------|0---0-0-3-0-----|--0-3---3-2-0---|
E |--------1-3---4-|--4-3-1---1-3-4-|--------------0-|3-------------3-|
B |3---3-3---------|--------3-------|----------------|----------------|

G |----------------|              G |----------------|
D |----------------| x4           D |----------------| x4
A |----------------|              A |----------------|
E |0-0-0-0-0-0-0-0-|              E |3-3-3-3-3-3-3-3-|
B |----------------|              B |----------------|
                               
G |----------------|              G |----------------|
D |----------------| x4           D |----------------| x4
A |----------------|              A |----------------|
E |----------------|              E |----------------|
B |3-3-3-3-3-3-3-3-|              B |1-1-1-1-1-1-1-1-|

G |----------------|----------------|----------------|----------------|
D |----------------|----------------|----------------|----------------|
A |0---------------|----------------|----------------|----------------|
E |----------------|----------------|----------------|----------------|
B |----------------|----------------|----------------|----------------|

G |----------------|----------------|----------------|----------------|
D |----------------|----------------|----------------|----------------|
A |----------------|----3---1-------|----------------|--------1-------|
E |-------13-------|-----------4--1-|3---------------|4---------------|
B |----134---------|----------------|----------------|----------------|

G |----------------|----------------|----------------|----------------|
D |----------------|----------------|----------------|----------------|
A |3-----------3-3-|----------------|3-----------3-3-|----------------|
E |----------------|--------------3-|----------------|----------------|
B |----------------|----------------|----------------|----------------|

G |----------------|----------------|----------------|----------------|
D |----------------|----------------|----------------|----------------|
A |3-----------3-3-|----------------|2---------------|1-1-1-1-1-1-1-1-|
E |----------------|--------------3-|----------------|----------------|
B |----------------|----------------|----------------|----------------|

G |----------------|
D |------5-2-------|
A |1-3-4-----4-1---|
E |--------------3-|
B |----------------|



                            FOUR-STRING VERSION

G |----------------|              G |----------------|
D |----------------| x10          D |----------------| x2
A |----------------|              A |----------------|
E |1-1-1-1-1-1-1-1-|              E |4-4-4-4-4-4-4-4-|
                                 
G |----------------|----------------|5-8-5-----------|----------------|
D |--------6-------|----6---6-----8-|-----86-8-6-----|----6-----------| x3
A |8---8-8---8-----|6-8-------------|------------6-7-|8-6-----8-------|
E |--------------8-|----------------|----------------|----------------|

G |----------------|----------------|----------------|----------------|
D |--------5-------|----5---5-4-----|----------4---5-|--5-4-----------|
A |7---7-7---7-----|5-7---------7-5-|4---4-4-7-------|------7-4-------|
E |--------------7-|----------------|----------------|------------7---|

G |----------------|----------------|----------------|----------------|
D |----------------|----------------|----------------|----------------|
A |----------------|----------------|----------------|----------------|
E |4-4---------4-4-|--------4-4-----|4-4---------4-4-|--------4-4-----|

G |----------------|----------------|2---2-2-5-2-----|--2-5---5-4-2---|
D |--------3-5---6-|--6-5-3---3-5-6-|--------------2-|5-------------5-|
A |5---5-5---------|--------5-------|----------------|----------------|
E |----------------|----------------|----------------|----------------|

G |----------------|              G |----------------|
D |----------------| x4           D |----------------| x4
A |----------------|              A |----------------|
E |0-0-0-0-0-0-0-0-|              E |3-3-3-3-3-3-3-3-|
                               
G |----------------|              G |----------------|
D |----------------| x4           D |----------------| x4
A |5-5-5-5-5-5-5-5-|              A |3-3-3-3-3-3-3-3-|
E |----------------|              E |----------------|

G |----------------|----------------|----------------|----------------|
D |----------------|----------------|----------------|----------------|
A |0---------------|----------------|----------------|----------------|
E |----------------|----------------|----------------|----------------|

G |----------------|----------------|----------------|----------------|
D |-------35-------|----------------|----------------|----------------|
A |----356---------|----3---1-------|----------------|--------1-------|
E |----------------|-----------4--1-|3---------------|4---------------|

G |----------------|----------------|----------------|----------------|
D |----------------|----------------|----------------|----------------|
A |3-----------3-3-|----------------|3-----------3-3-|----------------|
E |----------------|--------------3-|----------------|----------------|

G |----------------|----------------|----------------|----------------|
D |----------------|----------------|----------------|----------------|
A |3-----------3-3-|----------------|2---------------|1-1-1-1-1-1-1-1-|
E |----------------|--------------3-|----------------|----------------|

G |----------------|
D |------5-2-------|
A |1-3-4-----4-1---|
E |--------------2-|

Leave a Comment

Your email address will not be published. Required fields are marked *

Scroll to Top