Dark World (Legend of Zelda: A Link to the Past) Guitar Tab

The Legend Of Zelda: A Link To The Past - Dark World (SNES)
Tabbed by LTRobson 16/06/07

Standard tuning

|-------------------------------------|
|-8-8--8-8-8-10----11-11--11-11-11-13-|
|-8-8--8-8-8-10----12-12--12-12-12-14-|
|-------------------------------------|
|-------------------------------------|
|-------------------------------------|


|------------------8----------------------------------------------------------|
|----8-----------8---10-11-10-------------8-----------------------------------|
|------------------------------------8-10--------------10--7-8-7--------------|
|-10----------10-----------------------------10-------------------------8--10-|
|-----------------------------------------------------------------------------|
|-----------------------------------------------------------------------------|


|-----------------------------------------------------------------|
|-8-10-11--------8--11--10-8----------------8------------8--------|
|----------------------------10--------8-10----------------10-8-7-|
|----------------------------------------------------10-----------|
|-----------------------------------------------------------------|
|-----------------------------------------------------------------|

|-----------------------------8---------------------------------------------------|
|-8-10-11--------8--11--10-11----------11--------10--11--10-9-10----------------8-|
|---------------------------------------------------------------------------------|
|---------------------------------------------------------------------------------|
|---------------------------------------------------------------------------------|
|---------------------------------------------------------------------------------|


|-8--------------8---6--------------6--------------6-----------|
|---8-6-8--------------8-6-8----------6-4-6------------6-4-3-4-|
|--------------------------------------------------------------|
|--------------------------------------------------------------|
|--------------------------------------------------------------|
|--------------------------------------------------------------|

|--------------------8--------------8--10-|
|----------------8-----8-6-8--------------|
|-8-7-6-7---------------------------------|
|-----------------------------------------|
|-----------------------------------------|
|-----------------------------------------|

Leave a Comment

Your email address will not be published. Required fields are marked *

Scroll to Top