Davy Jones’ Theme (Pirates of the Caribbean: Dead Man’s Chest) Guitar Tab

Davy Jones    -      From Pirates of the Caribbean: Dead Man's Chest

Music by Hans Zimmer >> Symphonic arr. by Bob Perry >> Guitar solo tab by Diralark

Guitar, Tempo 126, let ring

     Q    Q    Q       Q    Q    Q       Q    Q    E   E     Q    H         
E||-----------------|-----------------|--0---------3p--1--|--0-------------|
B||------------0----|--1---------3----|--1----------------|--1-------------|
G||--2--------------|-----------------|-------------------|----------------|
D||-------2----0----|--2----2---------|-------2-----------|-------2--------|
A||--3--------------|--0--------------|--0----------------|--0-------------|
E||-----------------|-----------------|-------------------|----------------|


                              V                                         
                                       ^                                
  Q    Q    Q       Q    Q    E  E     Q    Q    Q       Q    H         
--0---------1----|--3---------5-----|-----------------|----------------|
--1--------------|---------------6--|--5--------------|--5-------------|
-----------------|------------------|--5---------7----|--5-------------|
-------2---------|-------0----------|-----------------|----------------|
--0--------------|------------------|-------7---------|-------7--------|
-----------------|--3---------------|--5--------------|--5-------------|


  Q    Q    Q       Q    Q    Q       Q    Q    E   E     Q    Q    Q     
--1---------3----|--0--------------|------------1p--0--|-----------------|
--3--------------|--1---------1----|--3----------------|--1--------------|
-------2---------|------------2----|-------------------|--2---------2----|
--0--------------|-------2---------|-------0-----------|-------2---------|
-----------------|--0--------------|--2----------------|--0--------------|
-----------------|-----------------|-------------------|-----------------|


                                      ^                                            
  Q    Q    Q       Q    Q    Q       Q    Q    Q       W                H         
-----------------|-----------------|-----------------|----------------------------|
--0--------------|------------0----|-----------------|----------------------------|
--0---------0----|-----------------|--2--------------|--2-------------------------|
-----------------|--2--------------|--2----2---------|--2-------------------------|
-------2---------|-------2---------|------------3----|--3-------------------------|
--3--------------|--3--------------|-----------------|----------------------------|


                        VIII                --                    --              
   Q     Q     Q        Q     Q     Q       Q     Q     E   E     Q     H         
--------------------|--------------------|---------------------|-----------------|
--------------------|--------------------|--8----------11p--9--|--8--------------|
--------------------|---8----------10----|--8------------------|--8--------------|
--10----------12----|--------------------|---------------------|-----------------|
--------10----------|--10----10----------|-------10------------|-------10--------|
--11----------------|---8----------------|--8------------------|--8--------------|


  --                   --                 --                  --              
  Q     Q     Q        Q    Q    E  E     Q     Q     Q       Q     H         
-------------------|-------------8-----|-------------------|-----------------|
--8-----------9----|--11------------9--|--8----------------|--8--------------|
--8----------10----|-------------------|--8----------10----|--8--------------|
-------------------|---8---------------|-------------------|-----------------|
-------10----------|--------8----------|-------10----------|-------10--------|
--8----------------|-------------------|--8----------------|--8--------------|


   --                  --                   --                 -]              
   Q     Q     Q       Q     Q     Q        Q    Q    E  E     Q    Q    Q     
--------------------|-------------------|-------------------|-----------------|
---9----------11----|--8----------------|-------------9--8--|------------1----|
--10----------10----|--8-----------8----|--10---------------|--8----0---------|
--------10----------|-------------10----|-------------------|-----------------|
---8----------------|-------10----------|--------8----------|-----------------|
--------------------|--8----------------|--10---------------|--8--------------|


  Q    Q    Q       Q    Q    Q       Q    Q    Q       Q    W                Q     
-----------------|-----------------|-----------------|-----------------------------|
--3--------------|------------3----|--1--------------|--1--------------------------|
--3---------3----|--0--------------|--0----0---------|--0--------------------------|
-------0---------|-------0---------|------------1----|-------1---------------------|
--1--------------|--1--------------|-----------------|-----------------------------|
-----------------|-----------------|-----------------|-----------------------------|


  Q    Q    Q       Q    Q    Q       Q    Q    E   E     Q    H         
-----------------|-----------------|-------------------|----------------|
-----------------|-----------------|--0---------3p--1--|--0-------------|
-----------------|--0---------2----|--0----------------|--0-------------|
--2---------4----|-----------------|-------------------|----------------|
-------2---------|--2----2---------|-------2-----------|-------2--------|
--3--------------|--0--------------|--0----------------|--0-------------|


  Q    Q    Q       Q    Q    E  E     Q    Q    Q       Q    H         
-----------------|------------0-----|-----------------|----------------|
--0---------1----|--3------------1--|--0--------------|--0-------------|
--0---------2----|------------------|--0---------2----|--0-------------|
-----------------|--0---------------|-----------------|----------------|
-------2---------|-------0----------|-------2---------|-------2--------|
--0--------------|------------------|--0--------------|--0-------------|


  Q    Q    Q       Q    Q    Q       Q    Q    E   E     Q    Q    Q     
-----------------|-----------------|-------------------|-----------------|
--1---------3----|--0--------------|------------1p--0--|-----------------|
--2---------2----|--0---------0----|--2----------------|--0--------------|
-------2---------|------------2----|-------------------|------------2----|
--0--------------|-------2---------|-------0-----------|-------2---------|
-----------------|--0--------------|--2----------------|--0--------------|


  Q    Q    Q       Q    Q    Q       Q    Q    Q       Q    W                Q      
-----------------|-----------------|-----------------|-----------------------------||
-----------------|-----------------|-----------------|-----------------------------||
-----------------|-----------------|-----------------|-----------------------------||
--4--------------|------------4----|--2--------------|--2--------------------------||
--5---------5----|--2--------------|--2----2---------|--2--------------------------||
-------2---------|-------2---------|------------3----|-------3---------------------||

Legend
---------------
W - whole duration
H - half
Q - quarter
E - 8th
. - note dotted
L - tied note
h - hammer on
p - pull off
^ - brush up

Leave a Comment

Your email address will not be published. Required fields are marked *

Scroll to Top