Day Time (Intro) (Terraria) Guitar Tab

Only intro:

  E E E E E E E E   E E E E E E E E
|-3---2---------0-|---------------3-|
|-------0---0-1---|-3-----------3---|
|-----------------|---0---0---0-----|
|-----------------|-----------------|
|-----------------|-----------------|
|-----------------|-----------------|


  E Q  E Q  S S E   E Q  E Q  S S S S
|-5----7----------|-----------3-------|
|-----------------|-0----1------3-0---|
|---------------0-|-0----0----------0-|
|-------------0---|-0----2------------|
|-----------------|-------------------|
|-----------3-----|-------------------|


  E E E E E E E E   E E H.        E E Q.   E E E
|-3---2---------0-|-------------|--------------0-|
|-------0---0-1---|-3-----------|-3----------2---|
|-----------------|---0---------|---0------2---2-|
|-----------------|-------------|------------2---|
|-----------------|-------------|----------4-----|
|-----------------|-------------|----------------|


  S S E Q  S S  E E E    E Q  E E E E E
|-----------------7---|-10----7---3-7---|
|-0-2-3----7-8-10---8-|---------3-----3-|
|-0-2-4---------------|-----------------|
|---------------------|-----------------|
|---------------------|-----------------|
|---------------------|-----------------|


  E E E E Q  Q    H    H
|-3-------------|-----------*|
|---3-0---3--0--|-----------*|
|-------0-------|-2---------*|
|---------------|-----------*|
|------------2--|-4---------*|
|---------------|-----------*|

Leave a Comment

Your email address will not be published. Required fields are marked *

Scroll to Top