Death Mountain (Legend of Zelda: Twilight Princess) Guitar Tab

Death Mountain
The Legend of Zelda: Twilight Princess
Composer: Koji Kondo
Tabbed by Haley T,
January 20, 2010


e-0----------0------------0----------0-----------
B---1-----1----1-1-----1----1-----1----1-1-----1-
G-----0-3----------0-3--------0-3----------0-3---
D------------------------------------------------
A------------------------------------------------
E------------------------------------------------

e-0-0-3-0-3-5-6-6-5-3--0-0-3-0-3-5-6-6-5-3-
B------------------------------------------
G------------------------------------------
D------------------------------------------
A------------------------------------------
E------------------------------------------

e-0----------0------------0----------0-----------
B---1-----1----1-1-----1----1-----1----1-1-----1-
G-----0-3----------0-3--------0-3----------0-3---
D------------------------------------------------
A------------------------------------------------
E------------------------------------------------

e-0---0----0--------0----------0-----------0----------0-----------
B---1----1--------1---1------1---1-1-----1---1------1---1-1-----1-
G-------------0-3--------0-3---------0-3--------0-3---------0-3---
D-----------------------------------------------------------------
A-----------------------------------------------------------------
E-----------------------------------------------------------------

e0-0-3-0-3-5-6-6-5-3-0--0-3-0-3-5-6-6-5-3-
B-----------------------------------------
G-----------------------------------------
D-----------------------------------------
A-----------------------------------------
E-----------------------------------------

e-0---------0------------0---------0---------------
B---1-----1---1-1------1---1-----1---1-1-----1-3-1-
G-----0-3----------0-3-------0-3---------0-3-------
D--------------------------------------------------
A--------------------------------------------------
E--------------------------------------------------

e-0---0---0---0-------
B---1---1---1-------1-
G---------------0-3---
D---------------------
A---------------------
E---------------------

Leave a Comment

Your email address will not be published. Required fields are marked *

Scroll to Top