Dream Chaser (F-Zero X) Guitar Tab

Dream Chaser
F-Zero X
Composed by Taro Bando, Hajime Wakai
Tabbed by Coop_Ninjask
9/10/10


Guitarra 1 (Guitar 1)
      |-----3-----|     |-----3-----|     
      Q     Q     Q     Q     Q     Q     
E||--------------------------------------|
B||--------------------10----------10----|
G||*-------11----12----------12----------|
D||*-------------------------------------|
A||--------------------------------------|
E||--------------------------------------|


   |-----3-----|     |-----3-----|                  3     3    3  3    
   Q     Q     Q     Q     Q     Q        H         Q     Q    S  E.   
--------10----------------------------|-------------------------------|
--12----------13----12----10----------|-------------------------------|
--------------------------------12----|--11--------12----11----L------|
--------------------------------------|--------------------------12---|
--------------------------------------|-------------------------------|
--------------------------------------|-------------------------------|


                       |-----3-----|     |-----3-----|     
  H        H           Q     Q     Q     Q     Q     Q     
--------------------|-------------------------------------|
--------------------|-------------------10----------10----|
--------------------|--9----11----12----------12----------|
--L-----------------|-------------------------------------|
--------------------|-------------------------------------|
--------------------|-------------------------------------|


   |-----3-----|     |-----3-----|                  3     3     3  3    
   Q     Q     Q     Q     Q     Q        H         Q     Q     S  E.   
--------10----------------------10----|--12--------14----15-----L-17---|
--12----------13----12----13----------|--------------------------------|
--------------------------------------|--------------------------------|
--------------------------------------|--------------------------------|
--------------------------------------|--------------------------------|
--------------------------------------|--------------------------------|


  H        H            W                 
--L-----------------|--12----------------|
--------------------|--------------------|
--------------------|--------------------|
--------------------|--------------------|
--------------------|--------------------|
--------------------|--------------------|


   |-----3-----|     |-----3-----|                  3     3    3  3    
   Q     Q     Q     Q     Q     Q        H         Q     Q    S  E.   
--12----10----------------------------|-------------------------------|
--------------13----12----10----------|-------------------------------|
--------------------------------12----|--11--------12----11----L------|
--------------------------------------|--------------------------12---|
--------------------------------------|-------------------------------|
--------------------------------------|-------------------------------|


                       |-----3-----|     |-----3-----|     
  H        H           Q     Q     Q     Q     Q     Q     
--------------------|-------------------------------------|
--------------------|-------------------10----------10----|
--------------------|--9----11----12----------12----------|
--L-----------------|-------------------------------------|
--------------------|-------------------------------------|
--------------------|-------------------------------------|


   |-----3-----|     |-----3-----|                                              
   Q     Q     Q     Q     Q     Q        W                   W                 
--------------------------------------|--------------------|-------------------|
--12----10----------------------10----|--12----------------|--L----------------|
--------------12----11----12----------|--------------------|-------------------|
--------------------------------------|--------------------|-------------------|
--------------------------------------|--------------------|-------------------|
--------------------------------------|--------------------|-------------------|


-------------------|-------------------|-------------------|-------------------|
-------------------|-------------------|-------------------|-------------------|
-------------------|-------------------|-------------------|-------------------|
-------------------|-------------------|-------------------|-------------------|
-------------------|-------------------|-------------------|-------------------|
-------------------|-------------------|-------------------|-------------------|


-------------------|-------------------|-------------------|-------------------|
-------------------|-------------------|-------------------|-------------------|
-------------------|-------------------|-------------------|-------------------|
-------------------|-------------------|-------------------|-------------------|
-------------------|-------------------|-------------------|-------------------|
-------------------|-------------------|-------------------|-------------------|


    PH                    PH      PH      PH      PH      PH      PH    
                          |-------3-------|       |-------3-------|     
    W                     Q       Q       Q       Q       Q       Q     
---------------------|-------------------------------------------------|
---------------------|-------------------------<>10------------<>10----|
--<>9----------------|--<>9----<>11----<>12------------<>12------------|
---------------------|-------------------------------------------------|
---------------------|-------------------------------------------------|
---------------------|-------------------------------------------------|


     PH             PH      PH      PH 
                    3       3       3  
     H        E     Q       Q       S  
--------------------------------------|
--<>12--------L--<>13----<>12----<>10-|
--------------------------------------|
--------------------------------------|
--------------------------------------|
--------------------------------------|


          PH      PH      PH      PH      PH     PH 
   3      |-------3-------|       3       3      3  
   E.     Q       Q       Q       Q       Q      S  
---------------------------------------------------|
---L-----------------------------------------------|
-------<>12----<>11----<>12----<>11------------<>9-|
---------------------------------------<>12--------|
---------------------------------------------------|
---------------------------------------------------|


                  PH  PH   PH  PH  PH   PH 
   H        E     S   S    S   S   S    S  
------------------------------------------|
------------------------------------------|
---L--------L-------<>9-<>11-<>9-<>9-<>11-|
---------------<>12-----------------------|
------------------------------------------|
------------------------------------------|


     PH   PH   PH   PH   PH   PH   PH   PH   PH   PH   PH   PH   PH   PH   PH   
     S    S    S    S    S    S    S    S    S    S    S    S    S    S    S    
--------------------------------------------------------------------------------
----------------------<>10-----------<>10-<>12-<>10-<>10-<>12-<>13-<>12-<>12-<>1
--<>12-<>11-<>11-<>12------<>12-<>12--------------------------------------------
--------------------------------------------------------------------------------
--------------------------------------------------------------------------------
--------------------------------------------------------------------------------


     PH             PH    PH    PH  
     H        E     E     E     E   
--<>10--------L--<>10--------------|
-----------------------<>13--<>12--|
-----------------------------------|
-----------------------------------|
-----------------------------------|
-----------------------------------|


     PH    PH    PH    PH    PH    PH    PH    PH       PH                
     E     E     E     E     E     E     E     E        W                 
--------------------------------------------------|----------------------|
--<>10--<>12--<>10--------------<>10--------------|--<>13----------------|
--------------------<>12--<>11--------<>12--<>11--|----------------------|
--------------------------------------------------|----------------------|
--------------------------------------------------|----------------------|
--------------------------------------------------|----------------------|


     PH      PH      PH      PH      PH      PH    
     |-------3-------|       |-------3-------|     
     Q       Q       Q       Q       Q       Q     
--------------------------------------------------|
--<>13----<>12----<>10--------------------<>10----|
--------------------------<>12----<>11------------|
--------------------------------------------------|
--------------------------------------------------|
--------------------------------------------------|


    PH            PH   PH   PH   PH   PH   PH 
    H        E    S    S    S    S    S    S  
---------------------------------------------|
---------------------------------------------|
--<>9--------L-------------------------------|
----------------<>9-<>11-<>12-<>11-<>11-<>12-|
---------------------------------------------|
---------------------------------------------|


    PH   PH   PH  PH   PH  PH  PH   PH   PH   PH   PH   PH   PH   PH   PH   PH 
    S    S    S   S    S   S   S    S    S    S    S    S    S    S    S    S  
------------------------------------------------------------------------------|
----------------------------------------------------------<>10-----------<>10-|
--<>9-----------<>9-<>11-<>9-<>9-<>11-<>12-<>11-<>11-<>12------<>12-<>12------|
------<>12-<>12---------------------------------------------------------------|
------------------------------------------------------------------------------|
------------------------------------------------------------------------------|


     PH             PH    PH    PH  
     H        E     E     E     E   
-----------------------------------|
--<>12--------L--------------<>10--|
-----------------<>11--<>12--------|
-----------------------------------|
-----------------------------------|
-----------------------------------|


     PH      PH      PH      PH     PH      PH    
     |-------3-------|       |-------3------|     
     Q       Q       Q       Q      Q       Q     
-------------------------------------------------|
--<>12----<>10-----------------------------------|
------------------<>12----<>11----<>9------------|
-----------------------------------------<>12----|
-------------------------------------------------|
-------------------------------------------------|


     PH     PH      PH      PH      PH      PH        PH                  
     |-------3------|       |-------3-------|                             
     Q      Q       Q       Q       Q       Q         W                   
-------------------------------------------------|----------------------||
-------------------------------------------------|----------------------||
-------------------------------------------------|--<>9----------------*||
--<>10----<>9----<>10----<>12----<>10----<>12----|---------------------*||
-------------------------------------------------|----------------------||
-------------------------------------------------|----------------------||


--------------------|-------------------|-------------------|
--------------------|-------------------|-------------------|
*-------------------|-------------------|-------------------|
*-------------------|-------------------|-------------------|
--------------------|-------------------|-------------------|
--------------------|-------------------|-------------------|


                    4x                     
--------------------||-------------------||
--------------------||-------------------||
-------------------*||-------------------||
-------------------*||-------------------||
--------------------||-------------------||
--------------------||-------------------||




Guitarra 2 - (Guitar 2)
                              H         E.   E.   E     H.           Q     
E||--------|-------|-------|-------------------------|--------------------|
B||--------|-------|-------|-------------------------|--------------------|
G||*-------|-------|-------|-----------12---11-------|--9-----------------|
D||*-------|-------|-------|---------------------12--|--------------------|
A||--------|-------|-------|-------------------------|--------------------|
E||--------|-------|-------|-------------------------|--------------------|


                  H         S  S  S  S  S  S  S  S    H.           Q     
-------|-------|-----------14-12-10----------------|--------------------|
-------|-------|--------------------13-12-10-------|--------------------|
-------|-------|-----------------------------12-11-|--9-----------------|
-------|-------|-----------------------------------|--------------------|
-------|-------|-----------------------------------|--------------------|
-------|-------|-----------------------------------|--------------------|


                  Q     E   E   E.   E.   E      H.           Q             
-------|-------|-------14--15--17---15---14--|--12-----------------|-------|
-------|-------|-----------------------------|---------------------|-------|
-------|-------|-----------------------------|---------------------|-------|
-------|-------|-----------------------------|---------------------|-------|
-------|-------|-----------------------------|---------------------|-------|
-------|-------|-----------------------------|---------------------|-------|


  Q     S S  S  S S  S  S S  S  S S  S  
---------------------------------------|
---------------------------------------|
------------------9---------------9-11-|
----------9-10-12---12-10-9-10-12------|
-------12------------------------------|
---------------------------------------|


   S S  S  S S  S  S  S  S  S  S  S  S  S  S S  
-----------------------------------------------|
---------------------10-13-12-10----10---------|
--12-9-------9-11-12-------------12----12-11-9-|
-------12-11-----------------------------------|
-----------------------------------------------|
-----------------------------------------------|


  S S S S S S S S S S S S S S S S    S S S S S S S S S S S S S S E   
----------------------------------|---------------------------------|
----------------------------------|---------------------------------|
--9-0-7-0-5-0-4-0-2-0---0-2-0---0-|----0-2-0-4-0-5-0-4-0-2-0-4-0----|
----------------------5-------4---|--5------------------------------|
----------------------------------|---------------------------------|
----------------------------------|---------------------------------|


  S S S S S S S S S S S S S S S S    S S S S S S S S S S S S S S E   
----------------------------------|---------------------------------|
----------------------------------|---------------------------------|
--9-0-7-0-5-0-4-0-2-0---0-2-0-4-2-|----2-4-2---2-2-------2----------|
----------------------5-----------|--5-------5-----5-4-5---5-4-5----|
----------------------------------|---------------------------------|
----------------------------------|---------------------------------|


  S S S S S S S S S S S S S S S S    S S S S S S S S S S S S S S E   
----------------------------------|---------------------------------|
----------------------------------|---------------------------------|
--9-0-7-0-5-0-4-0-2-0---0-2-0---0-|----0-2-0-4-0-5-0-4-0-2-0-4-0----|
----------------------5-------4---|--5------------------------------|
----------------------------------|---------------------------------|
----------------------------------|---------------------------------|


  S S S S S S S S S S S S S S S S    S S S S S S S S S S S S S S E         
----------------------------------|---------------------------------|-----|
----------------------------------|---------------------------------|-----|
--9-0-7-0-5-0-4-0-2-0---0-2-0-4-2-|----2-4-2---2-2-------2----------|-----|
----------------------5-----------|--5-------5-----5-4-5---5-4-5----|-----|
----------------------------------|---------------------------------|-----|
----------------------------------|---------------------------------|-----|


-----|-----|-----|-----|-----|-----|-----|-----|-----|-----|-----|-----|-----|
-----|-----|-----|-----|-----|-----|-----|-----|-----|-----|-----|-----|-----|
-----|-----|-----|-----|-----|-----|-----|-----|-----|-----|-----|-----|-----|
-----|-----|-----|-----|-----|-----|-----|-----|-----|-----|-----|-----|-----|
-----|-----|-----|-----|-----|-----|-----|-----|-----|-----|-----|-----|-----|
-----|-----|-----|-----|-----|-----|-----|-----|-----|-----|-----|-----|-----|


                                       4x       
-----|------||------|-----|-----|------||-----||
-----|------||------|-----|-----|------||-----||
-----|-----*||*-----|-----|-----|-----*||-----||
-----|-----*||*-----|-----|-----|-----*||-----||
-----|------||------|-----|-----|------||-----||
-----|------||------|-----|-----|------||-----||




Harmonia (Harmony)
      C                                       D                 
      W                   W                   W                 
E||---0----------------|--L----------------|--2----------------|
B||---1----------------|--L----------------|--3----------------|
G||*--0----------------|--L----------------|--2----------------|
D||*--2----------------|--L----------------|--0----------------|
A||---3----------------|--L----------------|-------------------|
E||--------------------|-------------------|-------------------|


                      C                                       D                 
  W                   W                   W                   W                 
--L----------------|--0----------------|--L----------------|--2----------------|
--L----------------|--1----------------|--L----------------|--3----------------|
--L----------------|--0----------------|--L----------------|--2----------------|
--L----------------|--2----------------|--L----------------|--0----------------|
-------------------|--3----------------|--L----------------|-------------------|
-------------------|-------------------|-------------------|-------------------|


                      C                                       D                 
  W                   W                   W                   W                 
--L----------------|--0----------------|--L----------------|--2----------------|
--L----------------|--1----------------|--L----------------|--3----------------|
--L----------------|--0----------------|--L----------------|--2----------------|
--L----------------|--2----------------|--L----------------|--0----------------|
-------------------|--3----------------|--L----------------|-------------------|
-------------------|-------------------|-------------------|-------------------|


                      C                                       Bm                
  W                   W                   W                   W                 
--L----------------|--0----------------|--L----------------|--2----------------|
--L----------------|--1----------------|--L----------------|--3----------------|
--L----------------|--0----------------|--L----------------|--4----------------|
--L----------------|--2----------------|--L----------------|--4----------------|
-------------------|--3----------------|--L----------------|--2----------------|
-------------------|-------------------|-------------------|-------------------|


                      Em                                      Em                
  W                   W                   W                   W                 
--L----------------|--0----------------|--L----------------|--0----------------|
--L----------------|--0----------------|--L----------------|--0----------------|
--L----------------|--0----------------|--L----------------|--0----------------|
--L----------------|--2----------------|--L----------------|--2----------------|
--L----------------|--2----------------|--L----------------|--2----------------|
-------------------|--0----------------|--L----------------|--0----------------|


                      Em                                      Em                
  W                   W                   W                   W                 
--L----------------|--0----------------|--L----------------|--0----------------|
--L----------------|--0----------------|--L----------------|--0----------------|
--L----------------|--0----------------|--L----------------|--0----------------|
--L----------------|--2----------------|--L----------------|--2----------------|
--L----------------|--2----------------|--L----------------|--2----------------|
--L----------------|--0----------------|--L----------------|--0----------------|


                      C                                       D                 
  W                   W                   W                   W                 
--L----------------|--0----------------|--L----------------|--2----------------|
--L----------------|--1----------------|--L----------------|--3----------------|
--L----------------|--0----------------|--L----------------|--2----------------|
--L----------------|--2----------------|--L----------------|--0----------------|
--L----------------|--3----------------|--L----------------|-------------------|
--L----------------|-------------------|-------------------|-------------------|


                      C                                       D                 
  W                   W                   W                   W                 
--L----------------|--0----------------|--L----------------|--2----------------|
--L----------------|--1----------------|--L----------------|--3----------------|
--L----------------|--0----------------|--L----------------|--2----------------|
--L----------------|--2----------------|--L----------------|--0----------------|
-------------------|--3----------------|--L----------------|-------------------|
-------------------|-------------------|-------------------|-------------------|


                      C                                       D                 
  W                   W                   W                   W                 
--L----------------|--0----------------|--L----------------|--2----------------|
--L----------------|--1----------------|--L----------------|--3----------------|
--L----------------|--0----------------|--L----------------|--2----------------|
--L----------------|--2----------------|--L----------------|--0----------------|
-------------------|--3----------------|--L----------------|-------------------|
-------------------|-------------------|-------------------|-------------------|


                      C                                       D                 
  W                   W                   W                   W                 
--L----------------|--0----------------|--L----------------|--2----------------|
--L----------------|--1----------------|--L----------------|--3----------------|
--L----------------|--0----------------|--L----------------|--2----------------|
--L----------------|--2----------------|--L----------------|--0----------------|
-------------------|--3----------------|--L----------------|-------------------|
-------------------|-------------------|-------------------|-------------------|


  Em                     C                                     
  W                      W                   W                 
--7-----------------||---0----------------|--L----------------|
--8-----------------||---1----------------|--L----------------|
--9----------------*||*--0----------------|--L----------------|
--9----------------*||*--2----------------|--L----------------|
--7-----------------||---3----------------|--L----------------|
--------------------||--------------------|-------------------|


  D                                                            
  W                   W                 4x                     
--2----------------|--L-----------------||-------------------||
--3----------------|--L-----------------||-------------------||
--2----------------|--L----------------*||-------------------||
--0----------------|--L----------------*||-------------------||
-------------------|--------------------||-------------------||
-------------------|--------------------||-------------------||




Duration Legend
---------------
W - whole
H - half
Q - quarter
E - 8th
S - 16th
T - 32nd
X - 64th
. - note dotted
|-n-|  - n-tuplets


Tablature Legend
----------------
L - tied note
x - dead note
g - grace note
(n) - ghost note
> - accentuded note
NH - natural harmonic
AH - artificial harmonic
TH - tapped harmonic
SH - semi harmonic
PH - pitch harmonic
h - hammer on
p - pull off
b - bend
br - bendRelease
pb - preBend
pbr - preBendRelease
brb - bendReleaseBend
n/ - tremolo bar dip
n - tremolo bar dive
-/n - tremolo bar Release up
/n - tremolo bar inverted dip
/n - tremolo bar return
-n - tremolo bar Release down
S - shift slide
s - legato slide
/ -  slide into from below or out of upwards
 -  slide into from above or out of downwards
~ - vibrato
W - wide vibrato
tr - trill
TP - tremolo picking
T - tapping
S - slap
P - pop
< - fade in
^ - brush up
v - brush down

Leave a Comment

Your email address will not be published. Required fields are marked *

Scroll to Top