Dwarven Stone Upon Dwarven Stone (The Witcher 2: Assassins of Kings) Guitar Tab

Dwarven Stone Upon Dwarven Stone                         
The Witcher 2: Assassins of Kings
Composed by Adam Skorupa & Krzysztof Wierzynkiewicz
Arranged by IkuinenOnni



Steel Guitar
     H        Q    H.              H        Q    H        E  E   
E||-----------0----L------------|-----------0-------------------|
B||-----------1----L------------|-----------1----3--------1--0--|
G||-----------------------------|-----------2-------------------|
D||-----------2-----------------|-------------------------3-----|
A||--0--------------------------|-------------------------3-----|
E||-----------------------------|--1----------------------------|


  H        H        Q    E  E     H        H        Q    Q     
-----------0-------------------|------------------------------|
--1--------1-------------0-----|------------------------------|
-----------2----------------2--|--0--------2--------L---------|
--2-----------------2----------|--3--------3--------2---------|
--0----------------------------|-----------3--------L----2----|
-------------------------------|--1---------------------------|


  H        H.           E  E     H        H        E  E  E  E   
-----------0------------0-----|--------------------------------|
--0--------1---------------3--|--1--------1-----------1--0-----|
-----------2------------------|-----------------------------2--|
-----------2------------------|-----------3--------L-----------|
--0---------------------------|--------------------------------|
------------------------------|--1-----------------------------|


  E  Q.     W                   H        W                 
-----------------------------|----------------------------|
--0--1------3----------------|-----------0----------------|
------------0----------------|-----------0----------------|
--0---------0----------------|-----------0----------------|
-----------------------------|----------------------------|
--3--------------------------|--3-------------------------|


  H        H        H           Q    Q    H        Q    E  E   
-----------0-----------------|------------0-------------------|
--0--------1-----------------|------------3-------------1--0--|
--2--------2-----------------|------------2-------------------|
-----------2--------2--------|------------0--------3----------|
--0--------------------------|-------3-------------3----3--2--|
-----------------------------|--1-----------------------------|


  H        H        Q    Q       H        H        Q    Q     
-----------0------------------|--------------------0---------|
--1--------1--------0---------|------------------------------|
--2--------2-------------2----|--0--------2--------0---------|
--2-----------------2---------|--3--------3--------2---------|
--0-----------------2----0----|-----------3--------L----2----|
------------------------------|--1---------------------------|


  H        H.           E  E     H        H        E  E  E  E   
-----------0------------0-----|--------------------------------|
--0--------1---------------3--|--1--------------------1--L-----|
--2--------2------------------|-----------2--------L--------2--|
-----------2------------2--0--|-----------3--------L-----------|
--2---------------------------|-----------3--------L-----3-----|
------------------------------|--1-----------------------------|


  Q    Q    H        H           H        H        Q    E  E   
------------------------------|----------------------------0--|
--0---------3-----------------|-----------3-------------3-----|
------------4-----------------|-----------4--------0----------|
-------0----5--------2--------|-----------5-------------0--2--|
--2---------5-----------------|-----------5-------------------|
--3---------------------------|--3----------------------------|


  Q    Q    Q    Q    H           Q    Q    H        Q    E  E   
--3---------5------------------|------------0----------------0--|
------------0---------3--------|--3---------1-------------3-----|
--0---------2------------------|------------2-------------------|
-----------------2----0--------|--0----2----2--------2----0--2--|
-------2--------------2--------|--0-----------------------------|
--0----------------------------|--------------------------------|


  Q    Q    Q    Q    H           Q    Q    H        H         
--1---------3---------5--------|------------------------------|
------------3------------------|--3---------1-----------------|
------------2---------2--------|------------2-----------------|
--0----3----3----0-------------|--0---------3--------3--------|
----------------------0--------|-------3----3-----------------|
-------------------------------|--1---------------------------|


  H        H        Q    E  E     H        W                 
-----------0-------------------|--0--------0----------------|
--3----------------------------|--3-------------------------|
-----------2--------2----0--2--|--2--------0----------------|
--0--------2-------------------|--3-------------------------|
-----------3--------3----------|----------------------------|
--1----------------------------|----------------------------|


                        |--3--|                                             
  Q    E  S S Q    Q    E  E  E  E  E     Q    Q    Q    E  E  E  E  E  E   
---------------------------------------|------------0----0-----------------|
-------------------1----0--1--0--L-----|------------1-------3-----1-----0--|
--0----L--2-0-2------------------2--L--|------------2----------------------|
--------------2------------------------|-----------------------------3-----|
--0------------------------------------|-------3---------------3-----------|
---------------------------------------|--1--------------------------------|


                     |--3--|                                          
  H        Q    Q    E  E  E  E  E     Q    Q    Q    Q    Q    Q     
------------------------------------|-----------------0--------------|
--1-------------1----0--1--0--L-----|------------1---------1---------|
-----------2------------------2--L--|--0---------2--------------2----|
--2--------2------------------------|--------------------------------|
--0---------------------------------|-------3------------------------|
------------------------------------|--1-----------------------------|


                      |--3--|                                            
  Q    Q    Q    Q    E  E  E  E  E     Q    Q    Q    Q    Q    E  S S  
-------------------------------0-----|-----------------0----------------|
--0---------1----1----0--1--0-----3--|--1---------1---------1-------1-0-|
------------2------------------2--L--|------------2--------------2------|
-------2----2------------------------|------------3---------------------|
--0----------------------------------|-------3--------------------------|
-------------------------------------|--1-------------------------------|


  S Q    E.  Q    Q    Q    Q       Q    Q    Q    Q    Q    Q     
---------------------------------|--------------------------------|
------------------3--------------|------------0----3--------------|
--2-4----L---0---------0---------|-------0--------------0---------|
-------------0--------------0----|------------0--------------0----|
-------------2-------------------|--------------------------------|
---------------------------------|--3-----------------------------|


                     |--3--|                                           
  H        Q    Q    E  E  E  E  E     Q    Q    Q    Q    Q    E  E   
------------------------------------|------------0--------------------|
--0--------1----1----0--1--0--L-----|------------1----3----1----1--0--|
------------------------------2--L--|------------2--------------------|
-----------2------------------------|---------------------------------|
--0---------------------------------|-------3-------------------3--2--|
------------------------------------|--1------------------------------|


                     |--3--|                                         
  H        Q    Q    E  E  E  Q       Q    Q    Q    Q    Q    Q     
-----------------------------------|-----------------0--------------|
--1--------1----1----0--1--0-------|------------1---------1---------|
-----------2------------------2----|--0---------2--------------2----|
--2--------2-----------------------|------------3---------2---------|
--0--------------------------------|-------3------------------------|
-----------------------------------|--1-----------------------------|


                                                       |--3--|         
  Q    Q    Q    Q    Q    E  E     Q    Q    H        E  E  E  E  E   
------------0--------------0-----|------------------------------------|
--0---------1----1------------3--|--1---------1--------0--1--0--3-----|
------------2---------2----------|------------2--------------------2--|
-------2-------------------2--0--|-------3----------------------------|
--0---------0--------------------|------------------------------------|
---------------------------------|--1---------------------------------|


  Q    Q    Q    Q    Q    Q       Q    Q    H        Q    Q     
--------------------------------|-------------------------------|
--0----3----3-------------------|------------3-------------3----|
------------4-------------------|------------4------------------|
--0---------5----5--------------|------------5-------------0----|
------------5---------5----2----|-------5----5------------------|
--3-----------------------------|--3------------------3---------|


  H        H.           Q       H        H.           Q     
--3--------5-----------------|--0--------------------------|
-----------5------------3----|-----------1------------1----|
--0--------2-----------------|-----------2-----------------|
------------------------0----|--2--------2-----------------|
-----------------------------|--0---------------------3----|
--0--------------------------|-----------------------------|


  H        H        Q    Q       H        H.           E  E   
--1--------0------------------|------------------------------|
-----------1--------3----1----|--1--------3------------1--0--|
-----------2------------------|-----------2------------------|
--0--------3--------0---------|------------------------------|
-------------------------3----|-----------3------------3--2--|
------------------------------|--1---------------------------|


  H        H.           E  E     H        H.           E  E   
------------------------------|------------------------------|
--1--------3------------1--0--|--1--------3---------------0--|
-----------2------------------|------------------------2-----|
-----------3------------------|-----------0------------------|
------------------------3--2--|--3---------------------0--2--|
--1---------------------------|------------------------------|


                     |--3--|                             |--3--|        
  H        Q    Q    E  E  E  Q       H        Q    Q    E  E  E  Q     
----------------1----0--1--0-------|-----------------------------------|
--1--------3------------------3----|--0--------1----1----0--1--0-------|
-----------2---------2-------------|-----------2------------------2----|
-----------0-----------------------|-----------2---------2-------------|
--3------------------3-------------|--0--------0-----------------------|
-----------------------------------|-----------------------------------|


                     |--3--|                             |--3--|        
  H        Q    Q    E  E  E  Q       H        Q    Q    E  E  E  Q     
-----------1----1----0--1--0-------|-----------------------------------|
-----------3------------------3----|-----------1----1----0--1--0-------|
-----------2---------2-------------|--2--------2------------------2----|
--0--------0-----------------------|-----------2---------2-------------|
-----------------------------------|--0--------0-----------------------|
-----------------------------------|-----------------------------------|


                     |--3--|                             |--3--|        
  H        Q    Q    E  E  E  Q       H        Q    Q    E  E  E  Q     
-----------1----1----0--1--0-------|-----------------------------------|
-----------3------------------3----|--0--------1----1----0--1--0--L----|
-----------2---------2-------------|-----------2---------2--------2----|
--0--------0-----------------------|-----------2---------2-------------|
---------------------3-------------|--0--------0---------0-------------|
-----------------------------------|------------------------------3----|


  H        H        H           E  E  Q    W                 
-----------------------------|-------------1----------------|
--------------------0--------|--1--0------------------------|
--0-----------------0--------|--------2---------------------|
-----------0--------0--------|-------------3----------------|
-----------------------------|-----2--0---------------------|
--3--------3-----------------|--1---------------------------|


                     |--3--|                             |--3--|        
  H        Q    Q    E  E  E  Q       H        Q    Q    E  E  E  Q     
-----------1----1----0--1--0-------|-----------------------------------|
-----------3------------------3----|-----------1----1----0--1--0-------|
-----------2---------2-------------|--2--------2------------------2----|
--0--------3-----------------------|-----------2---------2-------------|
-----------------------------------|--0--------0-----------------------|
-----------------------------------|-----------------------------------|


                     |--3--|                             |--3--|        
  H        Q    Q    E  E  E  Q       H        Q    Q    E  E  E  Q     
-----------1----1----0--1--0-------|--0--------------------------------|
-----------3------------------3----|-----------1----1----0--1--0-------|
-----------2---------2-------------|-----------2------------------2----|
--0--------3---------3-------------|-----------2---------2-------------|
-----------------------------------|--0--------0-----------------------|
-----------------------------------|-----------------------------------|


                     |--3--|                             |--3--|        
  H        Q    Q    E  E  E  Q       H        Q    Q    E  E  E  Q     
-----------1----1----0--1--0-------|-----------------------------------|
-----------3------------------3----|-----------1----1----0--1--0-------|
-----------2---------2-------------|--2--------2------------------2----|
--0--------0-----------------------|-----------2---------2-------------|
-----------------------------------|--0--------0-----------------------|
-----------------------------------|-----------------------------------|


  H        H        E  E  E  E     H        H        Q    Q     
--------------------------1-----|--------------------1----5----|
--1--------1--------1--3-----3--|--1--------1------------------|
-----------2--------------------|-----------2------------------|
-----------3--------------------|-----------3------------------|
--------------------------------|-----------3------------------|
--1-----------------------------|--1---------------------------|


  H        H        H           W.                         
-----------1-----------------|--0----------------|-------||
--1--------1--------3--------|--1----------------|-------||
--2--------------------------|--2----------------|-------||
--3--------------------------|--2----------------|-------||
-----------------------------|--0----------------|-------||
--1--------------------------|-------------------|-------||




Duration Legend
---------------
W - whole
H - half
Q - quarter
E - 8th
S - 16th
T - 32nd
X - 64th
. - note dotted
|-n-|  - n-tuplets


Tablature Legend
----------------
L - tied note
x - dead note
g - grace note
(n) - ghost note
> - accentuded note
NH - natural harmonic
AH - artificial harmonic
TH - tapped harmonic
SH - semi harmonic
PH - pitch harmonic
h - hammer on
p - pull off
b - bend
br - bendRelease
pb - preBend
pbr - preBendRelease
brb - bendReleaseBend
n/ - tremolo bar dip
n - tremolo bar dive
-/n - tremolo bar Release up
/n - tremolo bar inverted dip
/n - tremolo bar return
-n - tremolo bar Release down
S - shift slide
s - legato slide
/ -  slide into from below or out of upwards
 -  slide into from above or out of downwards
~ - vibrato
W - wide vibrato
tr - trill
TP - tremolo picking
T - tapping
S - slap
P - pop
< - fade in
^ - brush up
v - brush down

Leave a Comment

Your email address will not be published. Required fields are marked *

Scroll to Top