Eau de Vie (Shiki) Guitar Tab

Title: Eau de Vie
Composer: Yasuhara Takanashi
Anime: Shiki
Song: https://www.youtube.com/watch?v=wA5CJrla26s
Arrangement by: GomiNoUmi
Made: 7.3.2017

Capo on 3rd fret 
Rhythm 4/4

Here's all the basic parts of the song. Just rinse and repeat and you've got it. It's a bit simple but sounds good enough in my opinion.


 G|--------|---------------------------------------------|-------------------------------------------|
 D|--------|----------5--4--5-------------------------4--|--------5--4--5-------------------------4--|
A#|--------|-6-----6-----------6------------6------4-----|-6---6-----------6------------6------4-----|
 F|--------|----6-----------------6------6---------------|--------------------6------6---------------|
 C|--------|-4-----------------------4---------4---------|-4---------------------4---------4---------|
 G|--------|---------------------------------------------|-------------------------------------------|


 G|---------------------------------------------|-------------------------------------------|
 D|----------5--4--5-------------------------4--|--------5--4--5-------------------------4--|
A#|-6-----6-----------6------------6------4-----|-6---6-----------6------------6------4-----|
 F|----6-----------------6------6---------------|--------------------6------6---------------|
 C|-4-----------------------4---------4---------|-4---------------------4---------4---------|
 G|---------------------------------------------|-------------------------------------------|


 G|---------------------------------|---------------------------------|---------------------------------|
 D|---------------------------------|---------------------------------|-2-------2-------2-------2-------|
A#|-6-------6-------6-------6-------|-4-------4-------4-------4-------|-----2-------2-------2-------2---|
 F|-----6-------6-------6-------6---|-----6-------6-------6-------6---|---------------------------------|
 C|-4---------------4---------------|-2---------------2---------------|-0---------------0---------------|
 G|---------------------------------|---------------------------------|---------------------------------|


 G|---------------------------------|---------------------------------|-4-------------------------------|
 D|-------------------------4-------|-5-------------------------------|-----------------4---------------|
A#|-4-------4-------4-----------4---|---------6-------6-------6-------|---------4---------------4-------|
 F|-----6-------6-------6-----------|-----6-------6-------6-------6---|-----4-------4-------4-------4---|
 C|---------------------------------|-4---------------4---------------|-2---------------2---------------|
 G|-4---------------4---------------|---------------------------------|---------------------------------|


 G|-5-------------------------------|---------------------------------|-4-------------------------------|
 D|-----------------5---------------|-4---------------5---------------|-----------------5---------------|
A#|---------6---------------6-------|---------4---------------4-------|---------6-----------6-------6---|
 F|-----7-------7-------7-------7---|-----6-------6-------6-------6---|-----6-------6-----------6-------|
 C|---------------------------------|---------------------------------|-4-------------------------------|
 G|-5---------------5---------------|-4---------------4---------------|---------------------------------|


 G|-7---------------4---------------|-12------11------9-------7-------|-4-------------------------------|
 D|---------------------4-------4---|-----0-------0-------0-------0---|---------7-------4-------5-------|
A#|---------4---------------4-------|---------------------------------|-----4-------4-------4-------4---|
 F|-----4-------4-------------------|---------------------------------|---------------------------------|
 C|-2-------------------------------|-0---------------0---------------|---------------------------------|
 G|---------------------------------|---------------------------------|-4---------------4---------------|


 G|-------------------------------------------|-------------------------------------------|
 D|--------5--4--5-------------------------4--|--------5--4--5-------------------------4--|
A#|-6---6-----------6------------6------4-----|-6---6-----------6------------6------4-----|
 F|--------------------6------6---------------|--------------------6------6---------------|
 C|-4---------------------4---------4---------|-4---------------------4---------4---------|
 G|-------------------------------------------|-------------------------------------------|


 G|-------------------------------------------|-------------------------------------------|
 D|--------5--4--5-------------------------4--|--------5--4--5-------------------------4--|
A#|-6---6-----------6------------6------4-----|-6---6-----------6------------6------4-----|
 F|--------------------6------6---------------|--------------------6------6---------------|
 C|-4---------------------4---------4---------|-4---------------------4---------4---------|
 G|-------------------------------------------|-------------------------------------------|


 G|--------|
 D|--------|
A#|--------|
 F|--------|
 C|--------|
 G|--------|

Leave a Comment

Your email address will not be published. Required fields are marked *

Scroll to Top