Ending Theme (Super Mario World) Bass Tab

                                   Super Mario World - Ending BASS TAB
                                         Composed by Koji Kondo

                                 Tabbed by auriplane ([email protected])



        Intro


   E   E Q     E   E Q      E   E Q     Q     Q
G |------------------------|------------------------|
D |------------------------|----5-5-----------5-----|
A |----5-5---------5-5-----|------------------------|
E |------------------------|------------------------|


        Part A


   Q     Q     Q     E   E  Q     Q     Q     E   E  Q     Q     Q     E   E  Q     Q     Q     E  E
G |5-----------------------|4-----------------------|3-----------------------|2-----------------------|
D |------------5---------5-|------------5---------5-|------------5---------5-|------------2--------2--|
A |------------------------|------------------------|------------------------|------------------------|
E |------------------------|------------------------|------------------------|------------------------|


   Q     E   E Q     E   E  Q     E  E  Q     T T T  Q     E   E Q     E   E  Q     E   E E   E E   E
G |------------------------|------------------------|------------------------|------------------4---4-|
D |3---------3-4---------4-|5--------5--7-----7-----|----------------------5-|L---------5-7---7-------|
A |------------------------|--------------------7-6-|5---------5-L-----5-----|------------------------|
E |------------------------|------------------------|------------------------|------------------------|


   Q     Q     Q     E   E  Q     Q     Q     E   E  Q     Q     Q     E   E  Q     Q     Q     E   E
G |5-----------------------|4-----------------------|3-----------------------|2-----------------------|
D |------------5---------5-|------------5---------5-|------------5---------5-|------------2---------2-|
A |------------------------|------------------------|------------------------|------------------------|
E |------------------------|------------------------|------------------------|------------------------|


   Q     E   E Q     E   E  Q     E   E Q     T T T  Q     E   E Q     E   E  Q     E   E E   E E   E
G |------------------------|------------------------|----------------------5-|L-----5---5-4---4-------|
D |3---------3-4---------4-|5---------5-7-----7-----|----------5-L-----------|------------------8---8-|
A |------------------------|--------------------7-6-|5-----------------------|------------------------|
E |------------------------|------------------------|------------------------|------------------------|


        Part B


   Q     E   E Q     E   E  Q     E   E Q     T T T  Q     E   E Q     E   E  Q     E   E E   E E   E
G |------------------------|------------------------|------------------------|------------------------|
D |7---------7-------------|7---------7-7-----7-----|------------7---------7-|----------------------4-|
A |------------7---------7-|--------------------7-6-|5---------5-------------|5---------5-5---5-7-----|
E |------------------------|------------------------|------------------------|------------------------|


   Q     E   E Q     E   E  Q     E   E Q     T T T  Q     E   E T   T   T    Q     Q     H
G |------------------------|----------------------4-|5---------5-5---7---8---|9-----------------------|
D |5---------5-------------|5---------5-5-----5-7---|------------------------|------------5-----------|
A |------------5---------5-|------------------------|------------------------|------------------------|
E |------------------------|------------------------|------------------------|------------------------|


   Q     Q     Q     E   E  Q     Q     Q     E   E  Q     Q     Q     E   E  Q     Q     Q     E   E
G |5-----------------------|4-----------------------|3-----------------------|2-----------------------|
D |------------5---------5-|------------5---------5-|------------5---------5-|------------2---------2-|
A |------------------------|------------------------|------------------------|------------------------|
E |------------------------|------------------------|------------------------|------------------------|


   Q     E   E Q     E   E  Q     E   E Q     T T T  E   E Q     E   E Q      E   E Q     E   E Q
G |------------------------|------------------------|------------------------|------------------------|
D |3---------3-4---------4-|5---------5-7-----7-----|------------------------|----5-5-----------5-----|
A |------------------------|--------------------7-6-|----5-5---------5-5-----|------------------------|
E |------------------------|------------------------|------------------------|------------------------|


        Part C   -   Play twice


   Q     Q     Q     E   E  Q     Q     Q     E   E  Q     Q     Q     E   E  Q     Q     Q     E   E
G |5-----------------------|4-----------------------|3-----------------------|2-----------------------|
D |------------5---------5-|------------5---------5-|------------5---------5-|------------2---------2-|
A |------------------------|------------------------|------------------------|------------------------|
E |------------------------|------------------------|------------------------|------------------------|


   Q     E   E Q     E   E  Q     E   E Q     E   E  E   E Q     E   E Q      E   E Q     Q     E   E
G |------------------------|------------------------|------------------------|------------------------|
D |3---------3-4---------4-|5---------5-7---------7-|------------------------|----5-5---------------5-|
A |------------------------|------------------------|----5-5---------5-5-----|------------------------|
E |------------------------|------------------------|------------------------|------------------------|


        Part D


   E  E  E  E  E  E   E  E  E  E  E  E   H.                 H.
G |5-----5-----------|------------------|------------------|------------------|
D |---------8-----8--|7-----7--6-----6--|5-----------------|5-----------------|
A |------------------|------------------|------------------|------------------|
E |------------------|------------------|------------------|------------------|


   W                        W                        W                        W
G |5-----------------------|4-----------------------|3-----------------------|2-----------------------|
D |------------------------|------------------------|------------------------|------------------------|
A |------------------------|------------------------|------------------------|------------------------|
E |------------------------|------------------------|------------------------|------------------------|


        Now the Yoshis hatch ^-^


   Q     E   E Q     E   E  Q     E   E Q     T T T  E   E Q     E   E Q      E   E Q     E   E Q
G |------------------------|------------------------|------------------------|------------------------|
D |3---------3-4---------4-|5---------5-7-----7-----|------------------------|----5-5-----------5-----|
A |------------------------|--------------------7-6-|----5-5---------5-5-----|------------------------|
E |------------------------|------------------------|------------------------|------------------------|


        Part E


   E  E  E  E  E  E  E  E   E  E  E  E  E  E  E  E   E  E  E  E  E  E  E  E   E  E  E  E  E  E  E  E
G |---12----12----12----12-|---12----12----12----12-|---12----12----12----12-|------------------------|
D |10----------10----------|9-----------9-----------|8-----------8-----------|---14----14----14----14-|
A |------10----------10----|------10----------10----|------10----------10----|12----------12----------|
E |------------------------|------------------------|------------------------|------12----------12----|


   E  E  E  E  E  E  E  E   E  E  E  E  E  E  E  E   E  E  E  E  E  E  E  E   E  E  E  E  E  E  E  E
G |---14----14----14----14-|---12----12----12----12-|---10----10----10-------|---10----10----10----10-|
D |------10----------10----|------10----------------|------------------------|------------------------|
A |------------------------|10----------12----------|------12----------------|10----------10----------|
E |13----------14----------|------------------12----|10----------10----12-13-|------10----------10----|


   E  E  E  E  E  E  E  E   E  E  E  E  E  E  E  E   E  E  E  E  E  E  E  E   E  E  E  E  E  E  E  E
G |---12----12----12----12-|---12----12----12----12-|---12----12----12----12-|---9-----9-----9-----9--|
D |10----------10----------|9-----------9-----------|8-----------8-----------|7-----------7-----------|
A |------10----------10----|------10----------10----|------10----------10----|------7-----------7-----|
E |------------------------|------------------------|------------------------|------------------------|


   E  E  E  E  E  E  E  E   E  E  E  E  E  E  E  E   E  E  E  E  E  E  E  E   E  E  E  E  E  E  E  E
G |---10----10----11----11-|---12----12----14----14-|---------------12----12-|---12----12-------------|
D |------10----------10----|------12----------14----|---12----12-------12----|10----------10-10-9-----|
A |8-----------9-----------|10----------12----------|------12----10----------|------10-------------13-|
E |------------------------|------------------------|10----------------------|------------------------|


        Part F


   E  E  E  E  E  E  E  E   E  E  E  E  E  E  E  E   E  E  E  E  E  E  E  E   E  E  E  E  E  E  E  E
G |---12----12----12----12-|---12----12----12-------|---11----11----11----11-|---11----11----11-------|
D |------------------------|------------------------|------------------------|------------------------|
A |12----------12----------|12----------12----------|------12----------12----|------12-------------9--|
E |------12----------12----|------12----------12-11-|10----------10----------|10----------10----12----|


   E  E  E  E  E  E  E  E   E  E  E  E  E  E  E  E   E  E  E  E  E  E  E  E   E  E  E  E  E  E  E  E
G |---10----10----10----10-|---10----10----10-------|---12----12----12----12-|---13----13----13-------|
D |------------------------|---------------------9--|10----------10----------|------------------------|
A |10----------10----------|10----------10----12----|------10----------10----|------14-------------11-|
E |------10----------10----|------10----------------|------------------------|12----------12----14----|


   E  E  E  E  E  E  E  E   E  E  E  E  E  E  E  E   E  E  E  E  E  E  E  E   E  E  E  E  E  E  E  E
G |---12----12----12----12-|---12----12----12-------|---11----11----11----11-|---11----11----11-------|
D |------------------------|------------------------|------------------------|------------------------|
A |12----------12----------|12----------12----------|------12----------12----|------12-------------9--|
E |------12----------12----|------12----------12-11-|10----------10----------|10----------10----12----|


   E  E  E  E  E  E  E  E   E  E  E  E  E  E  E  E   E  E  E  E  E  E  E  E   Q     Q     H
G |---10----10----10----10-|---10----10----10-------|---12----12----12----12-|------------------------|
D |------------------------|---------------------9--|10----------10----------|------------------------|
A |10----------10----------|10----------10----12----|------10----------10----|------------10----------|
E |------10----------10----|------10----------------|------------------------|8-----------------------|


        Part G


   E  E  E  E  E  E  E  E   E  E  E  E  E  E  E  E   E  E  E  E  E  E  E  E   E  E  E  E  E  E  E  E
G |---12----12----12----12-|---12----12----12----12-|---12----12----12----12-|------------------------|
D |10----------10----------|9-----------9-----------|8-----------8-----------|---14----14----14----14-|
A |------10----------10----|------10----------10----|------10----------10----|12----------12----------|
E |------------------------|------------------------|------------------------|------12----------12----|


   E  E  E  E  E  E  E  E   E  E  E  E  E  E  E  E   E  E  E  E  E  E  E  E   E  E  E  E  E  E  E  E
G |---14----14----14----14-|---12----12----12----12-|---10----10----10-------|---10----10----10----10-|
D |------10----------10----|------10----------------|------------------------|------------------------|
A |------------------------|10----------12----------|------12----------------|10----------10----------|
E |13----------14----------|------------------12----|10----------10----12-13-|------10----------10----|


   E  E  E  E  E  E  E  E   E  E  E  E  E  E  E  E   E  E  E  E  E  E  E  E   E  E  E  E  E  E  E  E
G |---12----12----12----12-|---12----12----12----12-|---12----12----12----12-|---9-----9-----9-----9--|
D |10----------10----------|9-----------9-----------|8-----------8-----------|7-----------7-----------|
A |------10----------10----|------10----------10----|------10----------10----|------7-----------7-----|
E |------------------------|------------------------|------------------------|------------------------|


   E  E  E  E  E  E  E  E   E  E  E  E  E  E  E  E
G |---10----10----11----11-|---12----12----14----14-|
D |------10----------10----|------12----------14----|
A |8-----------9-----------|10----------12----------|
E |------------------------|------------------------|


        Intro to part H


   E   E Q     E   E Q      E   E Q     Q     Q
G |------------------------|------------------------|
D |------------------------|----5-5-----------5-----|
A |----5-5---------5-5-----|------------------------|
E |------------------------|------------------------|


        Part H   -   Play twice


   Q     Q     Q     E   E  Q     Q     Q     E   E  Q     Q     Q     E   E  Q     Q     Q     E   E
G |5-----------------------|4-----------------------|3-----------------------|2-----------------------|
D |------------5---------5-|------------5---------5-|------------5---------5-|------------2---------2-|
A |------------------------|------------------------|------------------------|------------------------|
E |------------------------|------------------------|------------------------|------------------------|


   Q     E   E Q     E   E  Q     E   E Q     E   E  E   E Q     E   E Q      E   E Q     Q     E   E
G |------------------------|------------------------|------------------------|------------------------|
D |3---------3-4---------4-|5---------5-7---------7-|------------------------|----5-5---------------5-|
A |------------------------|------------------------|----5-5---------5-5-----|------------------------|
E |------------------------|------------------------|------------------------|------------------------|


        Part I


   E   E Q     E   E Q      E   E Q     Q     Q
G |------------------------|------------------------|
D |------------------------|----6-6-----------6-----|
A |----6-6---------6-6-----|------------------------|
E |------------------------|------------------------|


   Q     Q     Q    E    E  Q     Q     Q     E   E  Q     Q     Q     E   E  Q     Q     Q     E   E
G |6-----------------------|5-----------------------|4-----------------------|3-----------------------|
D |------------6---------6-|------------6---------6-|------------6---------6-|------------3---------3-|
A |------------------------|------------------------|------------------------|------------------------|
E |------------------------|------------------------|------------------------|------------------------|


   Q     E   E Q     E   E  Q     E   E Q     E   E  E   E Q     E   E Q      E   E Q     Q     E   E
G |------------------------|------------------------|------------------------|------------------------|
D |4---------4-5---------5-|6---------6-8---------8-|------------------------|----6-6---------------6-|
A |------------------------|------------------------|----6-6---------6-6-----|------------------------|
E |------------------------|------------------------|------------------------|------------------------|


   E  E  E  E  E  E   E  E  E  E  E  E   Q.       Q     E   H.
G |------------------|------------------|------------------|------------------|
D |---------3--3--3--|4--4--4--5--5--5--|6--------6--------|------------------|
A |4--4--4-----------|------------------|---------------4--|L-----------------|
E |------------------|------------------|------------------|------------------|




Duration Legend
---------------
W - whole
H - half
Q - quarter
E - 8th
S - 16th
T - Triplet
. - note dotted


Tablature Legend
----------------
L - tied note

Leave a Comment

Your email address will not be published. Required fields are marked *

Scroll to Top