Facility (Goldeneye 007) Bass Tab

Facility
Goldeneye 007
Composed by Kirkhope and Norgate



Main bassline : 

G |----------------------------|----------------------------|
D |----------------------------|----------------------------|
A |--3-----3-------------------|--3-----1--3---------(1)----|
E |----------------------------|----------------------------|


----------------------------|----------------------------|
----------------------------|-----------------1--0-------|
--3-----3-------------------|--3-----1--3-----------1----|
----------------------------|----------------------------|x9

Note in parentheses plays the third time and then every other time


End bassline : 

-----------4--3--------0----|-------|-------|----------------------------------------------------|
--------1--------1--4-------|-------|-------|--1-----3--1--0-------------------------------------|
-----3----------------------|-------|-------|----------------------------------------------------|
----------------------------|-------|-------|----------------------------------------------------|



----------------------------|-------|-----------4--3--------0----|-------|
----------------------------|-------|--------1--------1--4-------|-------|
-----3-----3--0-------------|-------|-----3----------------------|-------|
----------------------------|-------|----------------------------|-------|


----------------------------------------------------|----------------------------||
--1-----3--1--0-------------------------------------|----------------------------||
-----------------------------------------1----------|--3-------------------------||
--------------------------------3-------------------|----------------------------||

Leave a Comment

Your email address will not be published. Required fields are marked *

Scroll to Top