Final Destination (Super Smash Bros. Brawl) Guitar Tab

Final Destination
Super Smash Bros. Brawl
Hirokazu Ando
Zach Johnson
5-28-2008

Tuning - Drop D (D A D G B E)

 - Slide up
/ - Slide down
b - Bend string

    Intro (0:00 - 0:07)
E --------------3--8--10--11--13-14---0-2----
B 15/---1—3—4-—-----------------------------
G ---------------------------------------------
D ---------------------------------------------
A ---------------------------------------------
D ---------------------------------------------

    Some Rythmn To Start Off...(0:08 - 0:18)  (This mimics the violins)

E ------------------------------------------------------------------------
B ------------------------------------------------------------------------
G ------------------------------------------------------------------------
D 13----13----13---13---13--13 (x 3)------14---15---12---10------10/8/6-
A 13----13----13---13---13--13 (x 3)------14---15---12---10------10/8/6-
D 13----13----13---13---13--13 (x 3)------14---15---12---10------10/8/6-

    (0:19 - 0:30)  (Still mimicing the violins)
E ------------------------------------------------------------------
B ------------------------------------------------------------------
G ------------------------------------------------------------------
D  13----13---13---13---13--13-------13---13---13---13---15---12-
A  13----13---13---13---13--13-------13---13---13---13---15---12-
D  13----13---13---13---13--13-------13---13---13---13---15---12-

   
E ----------------------------------------------
B ----------------------------------------------
G ----------------------------------------------
D  13---13---13---12---1215------10---13---8-
A  13---13---13---12---1215------10---13---8-
D  13---13---13---12---1215------10---13---8-


Real guitar...here we go!  (0:30 - 0:42)

E ----------------------------------------------------5--6--8--6--5--6--4-------
B  3b------1—3—4—6—3------1—3—4—6--34/3---------------------------------
G -------------------------------------------------------------------------------
D -------------------------------------------------------------------------------
A -------------------------------------------------------------------------------
D -------------------------------------------------------------------------------

    (0:43 - 0:53)

E -------------------------------------------------------------------
B  3---4—6—6—4—3-----3—1—1------3---4—6—6—4—3-----4—6--8-
G -------------------------------------------------------------------
D -------------------------------------------------------------------
A -------------------------------------------------------------------
D -------------------------------------------------------------------

    (0:54 - 1:04)

E  1--3--4--4/3/1------3--4--6---6/4/3-------5--6--8--8--6--5--10-
B ------------------------------------------------------------------
G ------------------------------------------------------------------
D ------------------------------------------------------------------
A ------------------------------------------------------------------
D ------------------------------------------------------------------

   

I chose a little rythmn medley during the synth solo (1:05 - 1:15)
Guitar 1
E  10b--
B ------
G ------
D ------
A ------
D ------

These two start at the same time!
Guitar 2
E --------------------------------------------------------
B --------------------------------------------------------
G --------------------------------------------------------
D  10----10----10---10--10--10------8---8---8---8--8--8-
A  10----10----10---10--10--10------8---8---8---8--8--8-
D  10----10----10---10--10--10------8---8---8---8--8--8-

E ----------------------------------------
B ----------------------------------------
G ----------------------------------------
D  6---6--6-----8---8--8----10---10---10-
A  6---6--6-----8---8--8----10---10---10-
D  6---6--6-----8---8--8----10---10---10-

Guitar again...(1:16 - 1:27)

E -8/3--------1--3--4--6--3-------1--3--4--6--3------10--11--13--11--10--11--8-
B ---------------------------------------------------------------------------------
G ---------------------------------------------------------------------------------
D ---------------------------------------------------------------------------------
A ---------------------------------------------------------------------------------
D ---------------------------------------------------------------------------------

    It's synth, but I like to play along, I guess...(1:28 - 1:36)

E --1--1--3--1-------------1--1--3--1--------------------------------------
B ---------------4--3-----------------------4--3--4------1--3--4------3--1-
G --------------------------------------------------------------------------
D --------------------------------------------------------------------------
A --------------------------------------------------------------------------
D --------------------------------------------------------------------------

    DIRECTLY AFTER THE LAST RIFT! (1:36 - 1:50)

E -----------------3----3--4--3--1---------6--6--8--6--------4--3--4-
B 1--3--4--6----------------------------------------------------------
G ---------------------------------------------------------------------
D ---------------------------------------------------------------------
A ---------------------------------------------------------------------
D ---------------------------------------------------------------------

E -1--3--4------3--1--1-----3-
B ------------------------4----
G -----------------------------
D -----------------------------
A -----------------------------
D -----------------------------

    Right after the rift before this one... (1:51 - 2:03)

E -15---15--16--15--13--11------18--18--20--18---16--15--16-
B --------------------------------------------------------------
G --------------------------------------------------------------
D --------------------------------------------------------------
A --------------------------------------------------------------
D --------------------------------------------------------------


E -13--15--16---15--13-11-(hold till 2:03!)-
B -----------------------------------------
G -----------------------------------------
D -----------------------------------------
A -----------------------------------------
D -----------------------------------------

    Now we do some more rythmn during the drum solo...(2:04 - 2:41)

    Repeat this until the end...or come up with something yourself!
E -----------------------------------------------------------------------
B -----------------------------------------------------------------------
G -----------------------------------------------------------------------
D  10----10----10---10—10—10-------8---8---8---8—8—8------6---6--6-
A  10----10----10---10—10—10-------8---8---8---8—8—8------6---6--6-
D  10----10----10---10—10—10-------8---8---8---8—8—8------6---6--6-

E -----------------------------------------
B -----------------------------------------
G -----------------------------------------
D -8---8--8----10---10---10---10--10—10-
A -8---8--8----10---10---10---10--10—10-
D -8---8--8----10---10---10---10--10—10-

And that's all!!


Edit this page (if you have permission) |  Google Docs -- Web word processing, presentations and spreadsheets.   

Leave a Comment

Your email address will not be published. Required fields are marked *

Scroll to Top