Forever And Always

Hi,

Artist: Taylor Swift
Track: Forever and Always (Album Version)
Album: Fearless

Tuning: Standard (EADG)

Listen carefully for timings, particularly in the verses.

Verse, Come in at "Where you just kidding":                      

G|------------------------|------------------------|
D|------1/8-8-8-8-10------|------1/8-8-8-8-10------|
A|6-6-6--------------8-8-8|6-6-6-------------8-10-8|
E|------------------------|------------------------| 
 
G|------------------------|------------------------|
D|------1/8-8-8-8-10------|---------------3-----3-3|
A|6-6-6--------------8-8-8|------------------------|
E|------------------------|1-1-1-1-1-1-1-1-1-1-1-1-| 

Pre Chorus, "And I still":

G|---------------|---------------|---------------|---------------|
D|---------------|---------------|---------------|---------------|
A|6-6-6-6-6-6-6-6|---------------|---------------|3-3-3-3-3-3-3-3|
E|---------------|6-6-6-6-6-6-6-6|1-1-1-1-1-1-1-1|---------------|

G|---------------|---------------|---------------|------------------------|
D|---------------|---------------|---------------|---------------3-----3-3|
A|6-6-6-6-6-6-6-6|---------------|---------------|------------------------|
E|---------------|6-6-6-6-6-6-6-6|1-1-1-1-1-1-1-1|1-1-1-1-1-1-1-1-1-1-1-1-| 

Chorus, "Forever and always":

G|---------------|---------------|---------------|---------------|
D|---------------|---------------|---------------|---------------|
A|6---6---6---6--|---------------|---------------|3---3---3---3--|
E|---------------|6---6---6---6--|1---1---1---1--|---------------|

G|---------------|---------------|---------------|
D|---------------|---------------|--------------3|
A|6---6---6---6--|---------------|---------------|
E|---------------|6---6---6---6--|1111111111111--|


Bridge, "Didn't mean it baby"":

G|---------------|---------------|---------------|
D|---------------|---------------|---------------|
A|8-8-6-6-1--1-1-|8-8-6-6-1--1-1-|8-8-8-8-8-8-8-8|
E|---------------|---------------|---------------|

Those are all the different sections, all fit together pretty much the same each time.

Thanks for Looking, Please rate!

bassmastar_gaz

Leave a Comment

Your email address will not be published. Required fields are marked *

Scroll to Top