Fury Sparks (Tales of Vesperia) Guitar Tab

FURY SPARKS (v.s. Flynn Battle Theme)
Tales of Vesperia
November 23,2010
Tabbed By: JJ Oey

Standard Tuning

e :|--------------------------------------7-7-----7-------7--------------------
B :|-8-8-7h8-7-10--7----------8-8-7h8-7-8-----------10------10-10p8-7-8-10-----
G :|-----------------7-9------------------------9-------9------------------7-7-
D :|---------------------------------------------------------------------------
A :|---------------------------------------------------------------------------
E :|---------------------------------------------------------------------------


e :--------------------------------------7-7-------7-------7-------------------
B :-8-8-7h8-7-10--7----------8-8-7h8-7-8-------------10------10-10-7--7--------
G :-----------------7-9----------------------------------9----------7---9------
D :----------------------------------------------------------------------------
A :----------------------------------------------------------------------------
E :----------------------------------------------------------------------------


e :--------7-7-7h8-7-7----------10-7----7------------7------7----7h8-7--7--7---
B :-7-8-10-------------10-8p7h8------10---10-8-8------10-10----10---------------
G :------------------------------------------------9-------9--------------------
D :----------------------------------------------------------------------------
A :----------------------------------------------------------------------------
E :----------------------------------------------------------------------------


e :-7h10-10-12---7-10-12--7----10p7--10-12-7------10-8-7h8p7------------7-7-7--
B :-------------------------10-----10----------10------------10-8-8-7-8--------
G :----------------------------------------------------------------------------
D :----------------------------------------------------------------------------
A :----------------------------------------------------------------------------
E :----------------------------------------------------------------------------


e :-7h10-10-12---7-10-12--7----10-12-7----7---12-10-8-10-----------------------
B :-------------------------10---------10----------------12-7-8-10-8-10-12-----
G :----------------------------------------------------------------------------
D :----------------------------------------------------------------------------
A :----------------------------------------------------------------------------
E :----------------------------------------------------------------------------


e :------------|
B :-12-10-8----|
G :---------9--|
D :------------|
A :------------|
E :------------|

Leave a Comment

Your email address will not be published. Required fields are marked *

Scroll to Top