God’s Not Dead

*fixed



     Newsboys - God's Not Dead (Bass Tab) OFFICIAL




  INTRO
G|----------------------------------------|X2
D|--------------------------------------4-|
A|-----------------------------------5----|
E|444-4-44--222-2-22--777-7-77---6-7------|



   VERSE 1   (Hold Noes Longer)
G|--------------------------------------------------------------------------------------|
D|--------------------------------------------------------------------------------------|
A|11-11-11-11-11-11-11-9999999999-14-14-14-14-14-14-14-------------11-11-11-11-7777777/0|
E|------------------------------------------------------999999999-----------------------|



  CHORUS (FILLS)
G|---------------------------------------------------------------------------------|
D|----------------------(9999)-------------(999999)-----------------------(9999999)|
A|11-11-11-11-11-11-11---------9999999999--------------11-11-11-11-11-11-----------|
E|---------------------------------------------------------------------------------|




  Let Love Explode...
G|----------------------|
D|----------------------|
A|11---9----------------|
E|---------7---9---4---0|



   Now I'm Lost In Your freedom...
G|--------------------------------------------------------------------|
D|--------------------------------------------------------------------|
A|99999999-11-11-11-11-11-9-11-11-11-11-11-9999999-11-999999999-77777777/0|
E|--------------------------------------------------------------------|


    CHORUS (FILLS)
G|---------------------------------------------------------------------------------|
D|----------------------(9999)-------------(999999)-----------------------(9999999)|
A|11-11-11-11-11-11-11---------9999999999--------------11-11-11-11-11-11-----------|
E|---------------------------------------------------------------------------------|




  BACK TO INTRO
G|------------------------------------------------|X2
D|--------------------------------------4---------|
A|-----------------------------------5---------14h|
E|444-4-44--222-2-22--777-7-77---6-7--------------|




Now I'm Lost In Your freedom...
G|--------------------------------------------------------------------|
D|--------------------------------------------------------------------|
A|99999999-11-11-11-11-11-9-11-11-11-11-11-9999999-11-999999999-77777777/0|
E|--------------------------------------------------------------------|



  CHORUS (FILLS)
G|---------------------------------------------------------------------------------|
D|----------------------(9999)-------------(999999)-----------------------(9999999)|
A|11-11-11-11-11-11-11---------9999999999--------------11-11-11-11-11-11-----------|
E|---------------------------------------------------------------------------------|





  INTRO part
G|----------------------------------------|
D|--------------------------------------4-|
A|-----------------------------------5----|
E|444-4-44--222-2-22--777-7-77---6-7------|




  INTRO part
G|---------------------|
D|---------------------|
A|---------------------|
E|444-4-44--222-2-22--7|





  CHORUS (FILLS)
G|---------------------------------------------------------------------------------|x2
D|----------------------(9999)-------------(999999)-----------------------(9999999)|
A|11-11-11-11-11-11-11---------9999999999--------------11-11-11-11-11-11-----------|
E|---------------------------------------------------------------------------------|





  ending
G|----------------------------------------|
D|--------------------------------------4-|
A|-----------------------------------5----|
E|444-4-44--222-2-22--777-7-77---6-7------|




G|--------------|
D|16-13-16------|
A||--------13-14|
E|--------------|

Leave a Comment

Your email address will not be published. Required fields are marked *

Scroll to Top