Hageshii Omoi (Rozen Maiden) Guitar Tab

hageshiiomoi rozen maiden

it is very fast hope you enjoy xD


piano arrange Sheets and midi by sperion:http://sperion.web.fc2.com/main.html#score_anime
tabbed by Max
4/4

 |       |       |       |        |       |       |       |        
|--------------------------------|--------------------------------|
|----1-0-1-----------3-1-3-1-0---|----0---0-----------1-0-1-0-----|
|2-----------2-------------------|0-----2-----0---------------2---|
|----------------3---------------|----------------2---------------|
|0-------3-------5---------------|--------2-------3---------------|
|--------------------------------|3-------------------------------|
 
 |       |       |       |        |       |       |       |        
|--------------------------------|--------------------------------|
|--------------------0---0-------|------------------0-1-0---------|
|----2-0-2-------------2---2-1---|----1---1-------2-------2-------|
|3-----------3---0---------------|2-----4-----2-------------2-----|
|--------0-------2---------------|----------------0-----------3---|
|1-------------------------------|0-------4-----------------------|
 
 |       |       |       |        |       |       |       |        
|--------------------------------|--------------------------------|
|----1-0-1-----------3-1-3-1-0---|----0---0-----------1-0-1-0-----|
|2-----------2-------------------|0-----2-----0---------------2---|
|----------------3---------------|----------------2---------------|
|0-------3-------5---------------|--------2-------3---------------|
|--------------------------------|3-------------------------------|
 
 |       |       |       |        |       |       |       |        
|--------------------------------|--------------------------------|
|--------------------0---0-------|--------------------------------|
|----2-0-2-------------2---2-1---|----1---1-------2-------2-------|
|3-----------3---0---------------|2-----4-----2-----2---2---------|
|--------0-------2---------------|----------------0---3-----------|
|1-------------------------------|0-------4-----------------------|
 
 |       |       |       |        |       |       |       |        
|--------------------------------|--------------------------------|
|----1-0-1-----------------------|----0---0-----------------------|
|2-----------2-------------------|------2-----0-------------------|
|----------------3---0---0-------|----------------2---------------|
|0-------3-------5-----3---3-2---|--------2-------3---3-2-3-2-0---|
|------------------------1-------|3-----------------------0-------|
 
 |       |       |       |        |       |       |       |        
|--------------------------------|--------------------------------|
|--------------------------------|------------------0-1-0---------|
|----2-0-2-----------------------|----1---1-------2-------2-------|
|------------3---0-------0-------|------4-----2-------------2-----|
|--------0-------2---2-0-2-0-----|----------------0-------3---3---|
|1---------------------------4---|0-------4-----------------------|
 
 |       |       |       |        |       |       |       |        
|--------------------------------|--------------------------------|
|----1-0-1-----------------------|----0---0-----------------------|
|2-----------2-------------------|------2-----0-------------------|
|----------------3---0---0-------|----------------2---------------|
|0-------3-------5-----3---3-2---|--------2-------3---3-2-3-2-0---|
|------------------------1-------|3-----------------------0-------|
 
 |       |       |       |        |       |       |       |        
|--------------------------------|--------------------------------|
|--------------------------------|--------------------------------|
|----2-0-2-----------------------|----1---1-------2-------2-------|
|------------3---0-------0-------|------4-----2-----2---2---------|
|--------0-------2---2-0-2-0-----|----------------0---3-----------|
|1---------------------------4---|0-------4-----------------------|
 
 |       |       |       |        |       |       |       |        
|--------------------------------|--------------------------------|
|----1-0-1-----------3-1-3-1-0---|----0---0-----------1-0-1-0-----|
|2-----------2-------------------|0-----2-----0---------------2---|
|----------------3---------------|----------------2---------------|
|0-------3-------5---------------|--------2-------3---------------|
|------------------------1-------|3-----------------------0-------|
 
 |       |       |       |        |       |       |       |        
|--------------------------------|--------------------------------|
|--------------------0---0-------|------------------0-1-0---------|
|----2-0-2-------------2---2-1---|----1---1-------2-------2-------|
|3-----------3---0-------0-------|2-----4-----2-------------2-----|
|--------0-------2---------------|----------------0-------3---3---|
|1-------------------------------|0-------4-----------------------|
 
 |       |       |       |        |       |       |       |        
|--------------------------------|--------------------------------|
|----1-0-1-----------3-1-3-1-0---|----0---0-----------1-0-1-0-----|
|2-----------2-------------------|0-----2-----0---------------2---|
|----------------3---------------|----------------2---------------|
|0-------3-------5---------------|--------2-------3---------------|
|------------------------1-------|3-----------------------0-------|
 
 |       |       |       |        |       |       |       |        
|--------------------------------|--------------------------------|
|--------------------0---0-------|--------------------------------|
|----2-0-2-------------2---2-1---|----1---1-------2-------2-------|
|3-----------3---0-------0-------|2-----4-----2-----2---2---------|
|--------0-------2---------------|----------------0---3-----------|
|1-------------------------------|0-------4-----------------------|
 
 |       |       |       |        |       |       |       |        
|----8-7-8-----------108-108-7---|----7-5-7-----------8-7-8-7-5---|
|10----------10------------------|8-----------8---5---------------|
|----------------10--------------|--------------------------------|
|7-----------7-------------------|5-----------5---------------7---|
|0---------------8---------------|----------------7---------------|
|--------8-------10--------------|--------7---------------0-------|
 
 |       |       |       |        |       |       |       |        
|----5---5-----------7-5-7-5-4---|----4-2-4-------5---------------|
|6-----8-----6-------------------|5-----------5-------------------|
|----------------7---------------|------------------------2-------|
|--------------------------------|2-----------2-----------2-------|
|8-----------8---5-------5-------|------------------------3-------|
|--------5-------7---------------|0-------4-------5---------------|

Created with TablEdit http://www.tabledit.com/

Leave a Comment

Your email address will not be published. Required fields are marked *

Scroll to Top