Hatventures

I made this for anyone who thought this little riff is cool and wanted to learn it. I got it off watching
Trott play on live stream. It might not be 100% accurate so keep that in mind.


Intro

e|---------------------------------------------------------------------------|
B|---------------------------------------------------------------------------|
G|----------14-10-12----10-9--------------------14-10-12----10-9-------------|
D|--12~--12------------------12-10-12~-------12------------------12-10-12----|
A|---------------------------------------------------------------------------|
E|---------------------------------------------------------------------------|

e|---------------------------------------------------------------------------|
B|---------------------------------------------------------------------------|
G|-----10-9------------------------------------------------------------------|
D|--12------10-12------------------------------------------------------------|
A|---------------------------------------------------------------------------|
E|---------------------------------------------------------------------------|



************************************

| ~  Vibrato

************************************

Leave a Comment

Your email address will not be published. Required fields are marked *

Scroll to Top