Heart-shaped box (Ver.2)

/ = slide 
^ = bend  
 
Drop D Tuning 
 
(without distortion) 4x 
|----------------------------------------------------------------| 
|----------------------------------------------------------------| 
|-----2-------------------------2--------------------------------| 
|---2---2-----3-------0---0-2-2---2-----3-----2/4-4-4-----0------| 
|-0---------3---3---0---0---0---------3---3-----------3-3--------| 
|---------3-------0-----------------3-------0--------------------| 
 
(without distortion) 1x 
|----------------------------------------------------------------| 
|----------------------------------------------------------------| 
|-----2-------------------------2--------------------------------| 
|---2---2-----3-------0---0-2-2---2-----3------------------------| 
|-0---------3---3---0---0---0---------3---3----------------------| 
|---------3-------0-----------------3-------0--------------------| 
 
(with distorition) 1x 
|----------------------------------------------------------------| 
|----------------------------------------------------------------| 
|----------------------------------------------------------------| 
|-2/4-4-4-----0--------------------------------------------------| 
|---------3-3----------------------------------------------------| 
|----------------------------------------------------------------|  
 
(with distortion) 6x  
|----------------------------------------------------------------| 
|----------------------------------------------------------------| 
|-2-2-4^-----4^-------------4^-----------------------------------| 
|-2-2----3-3----0-0-0-0-0-0--------------------------------------| 
|-0-0----3-3----0-0-0-0-0-0--------------------------------------| 
|--------3-3----0-0-0-0-0-0--------------------------------------| 
 
(with distortion) 1x 
|----------------------------------------------------------------| 
|----------------------------------------------------------------| 
|----------------------------------------------------------------| 
|-3-3-3-3-3-3-3-3-0-0-0-0-0-0-0-3-3-3-3-3-3-3-3-2/4-4-4-----0----| 
|-3-3-3-3-3-3-3-3-0-0-0-0-0-0-0-3-3-3-3-3-3-3-3---------3-3------| 
|-3-3-3-3-3-3-3-3-0-0-0-0-0-0-0-3-3-3-3-3-3-3-3------------------| 
 
(without distortion) 3x  
|----------------------------------------------------------------| 
|----------------------------------------------------------------| 
|-----2-------------------------2--------------------------------| 
|---2---2-----3-------0---0-2-2---2-----3-----2/4-4-4-----0------| 
|-0---------3---3---0---0---0---------3---3-----------3-3--------| 
|---------3-------0-----------------3-------0--------------------| 
 
(without distortion) 1x 
|----------------------------------------------------------------| 
|----------------------------------------------------------------| 
|-----2-------------------------2--------------------------------| 
|---2---2-----3-------0---0-2-2---2-----3------------------------| 
|-0---------3---3---0---0---0---------3---3----------------------| 
|---------3-------0-----------------3-------0--------------------| 
 
(with distorition) 1x 
|----------------------------------------------------------------| 
|----------------------------------------------------------------| 
|----------------------------------------------------------------| 
|-2/4-4-4-----0--------------------------------------------------| 
|---------3-3----------------------------------------------------| 
|----------------------------------------------------------------|  
 
(with distortion) 6x  
|----------------------------------------------------------------| 
|----------------------------------------------------------------| 
|-2-2-4^-----4^-------------4^-----------------------------------| 
|-2-2----3-3----0-0-0-0-0-0--------------------------------------| 
|-0-0----3-3----0-0-0-0-0-0--------------------------------------| 
|--------3-3----0-0-0-0-0-0--------------------------------------| 
 
(with distortion) 1x 
|----------------------------------------------------------------| 
|----------------------------------------------------------------| 
|----------------------------------------------------------------| 
|-3-3-3-3-3-3-3-3-0-0-0-0-0-0-0-3-3-3-3-3-3-3-3-2/4-4-4-----0----| 
|-3-3-3-3-3-3-3-3-0-0-0-0-0-0-0-3-3-3-3-3-3-3-3---------3-3------| 
|-3-3-3-3-3-3-3-3-0-0-0-0-0-0-0-3-3-3-3-3-3-3-3------------------| 
 
(with distortion) 1x 
|----------------------------------------------------------------| 
|---8^---6^---6-5-4-3-2---8^---6^---6-5-4-3-2-0-0----------------| 
|-7----5----3-----------7----5----3------------------------------| 
|----------------------------------------------------------------| 
|----------------------------------------------------------------| 
|----------------------------------------------------------------| 
 
(without distortion) 3x 
|----------------------------------------------------------------| 
|----------------------------------------------------------------| 
|-----2-------------------------2--------------------------------| 
|---2---2-----3-------0---0-2-2---2-----3-----2/4-4-4-----0------| 
|-0---------3---3---0---0---0---------3---3-----------3-3--------| 
|---------3-------0-----------------3-------0--------------------| 
 
(without distortion) 1x 
|----------------------------------------------------------------| 
|----------------------------------------------------------------| 
|-----2-------------------------2--------------------------------| 
|---2---2-----3-------0---0-2-2---2-----3------------------------| 
|-0---------3---3---0---0---0---------3---3----------------------| 
|---------3-------0-----------------3-------0--------------------| 
 
(with distorition) 1x 
|----------------------------------------------------------------| 
|----------------------------------------------------------------| 
|----------------------------------------------------------------| 
|-2/4-4-4-----0--------------------------------------------------| 
|---------3-3----------------------------------------------------| 
|----------------------------------------------------------------|  
 
(with distortion) 6x  
|----------------------------------------------------------------| 
|----------------------------------------------------------------| 
|-2-2-4^-----4^-------------4^-----------------------------------| 
|-2-2----3-3----0-0-0-0-0-0--------------------------------------| 
|-0-0----3-3----0-0-0-0-0-0--------------------------------------| 
|--------3-3----0-0-0-0-0-0--------------------------------------| 
 
(with distortion) 2x 
|----------------------------------------------------------------| 
|----------------------------------------------------------------| 
|----------------------------------------------------------------| 
|-3-3-3-3-3-3-3-3-0-0-0-0-0-0-0----------------------------------| 
|-3-3-3-3-3-3-3-3-0-0-0-0-0-0-0----------------------------------| 
|-3-3-3-3-3-3-3-3-0-0-0-0-0-0-0----------------------------------| 
 
(with distortion) 1x 
|----------------------------------------------------------------| 
|----------------------------------------------------------------| 
|----------------------------------------------------------------| 
|-3-3-3-3-3-3-3-3-0-0-0-0-0-0-0-3-3-3-3-3-3-3-3-2/4-4-4-----0----| 
|-3-3-3-3-3-3-3-3-0-0-0-0-0-0-0-3-3-3-3-3-3-3-3---------3-3------| 
|-3-3-3-3-3-3-3-3-0-0-0-0-0-0-0-3-3-3-3-3-3-3-3------------------| 
 
------------------------------------------------------------------ 
HEART-SHAPED BOX 
 
She eyes me like a pisces when I am weak 
I've been locked inside your heart-shaped box for a week 
I was drawn into your magnet tar pit trap 
I wish I could eat your cancer when you turn black 
 
Hey 
Wait 
I've got a new complaint 
Forever in debt to your priceless advice 
 
Hate 
Haight 
I've got a new complaint 
Forever in debt to your priceless adivice 
 
Hey  
Wait 
I've got a new complaint 
Forever in debt to your priceless adivice 
 
Meat-eating orchlds forgive no one just yet 
Cut myself on angel's hair and baby's breath 
Broken hymen of your highness I'm left black 
Throw down your umbilical noose so I can climb right back 
 

Leave a Comment

Your email address will not be published. Required fields are marked *

Scroll to Top