Heart-shaped Box

1ºParte  
  
E|--------------------------------| 
B|--------------------------------| 
G|--------------------------------| 
D|----6-------2-------------------| 
A|--6---6---2---2---4---4---4---4-| 
E|4-------0-------4---4---4---4---| 
  
2ºParte  
  
E|--------------------------------|  
B|--------------------------------|  
G|--------------------------------|  
D|----6-------2-----2-3-3-3-------| 
A|--6---6---2---2-4---------2-4-4-| 
E|4-------0-----------------------| 
  
Rape Me  
  
Introdução: Dedilhado após as batidas  
(4 vezes)  
E|-------|-------|-------|-------| 
B|-------|-------|-------|-------| 
G|-------|-------|-------|-------| 
D|----6--|----9--|----4--|----7--| 
A|--6---6|--9---9|--4---4|--7---7| 
E|4------|7------|2------|5------| 

 

Leave a Comment

Your email address will not be published. Required fields are marked *

Scroll to Top