Hidden Village (Legend of Zelda: Twilight Princess) Guitar Tab

Song: Hidden Village
Game: Legend Of Zelda: Twilight Princess
Composer(s): Koji Kondo, Asuka Ohta, Toru Minegishi
Tabbed by: Daugreano

Guitar: 
                                                                  .
   H     E   E   E   E     H     H       H     E   E   E   E     H      Q      H     E   E   E   E
E|-----------------------|-------------|-----------------------|-------------|-----------------------|
B|-----------------------|-------------|-----------------------|-------------|-----------------------|
G|-----------------------|-------------|-----------------------|-------------|-----------------------|
D|---------------0-------|-------------|---------------0-------|-------------|---------------0-------|
A|-2---------4-------2---|-0-----------|-2---------4-------2---|-0-----------|-2---------4-------2---|
E|-----------------------|-------2-----|-----------------------|-------------|-----------------------|
                           .
   H     H       W        H      Q      H     E   E   E   E     H     H       H     E   E   E   E
E|-------------|--------|-------------|-----------------------|-------------|-----------------------|
B|-------------|--------|-------------|-----------------------|-------------|-----------------------|
G|-------------|--------|-------------|-----------------------|-------------|-----------------------|
D|-------------|--------|-------------|-0---------2---4---0---|-------------|-0---------2---4---0---|
A|-0-----------|-2------|--------0----|-----------------------|-4-----0-----|-----------------------|
E|-------2-----|--------|-------------|-----------------------|-------------|-----------------------|
    .                                                            .
   H      Q      H     E   E   E   E     H     H       W        H      E   S  S
E|-------------|-----------------------|-------------|--------|------------------|
B|-------------|-----------------------|-------------|--------|------------------|
G|-------------|-----------------------|-------------|--------|------------------|
D|-------------|-0---------2---4---0---|-------------|-4------|------------2--4--|
A|-4-----------|-----------------------|-4-----0-----|--------|------------------|
E|-------------|-----------------------|-------------|--------|------------------|
    .                      .             .                .                  .
   H      E   E     H     Q     S  S    H      Q   Q     H      E   S  S    H      E   E
E|----------------|-------------------|----------------|------------------|----------------|
B|------------0---|-------------------|----------------|------------------|------------0---|
G|-0------2-------|-------------------|--------0---2---|------------------|-0------2-------|
D|----------------|-4-----0-----0--2--|-3--------------|-2----------2--4--|----------------|
A|----------------|-------------------|----------------|------------------|----------------|
E|----------------|-------------------|----------------|------------------|----------------|

   H     H       Q    H     Q      H     H       H     E   E   E   E     H     H
E|-------------|------------2----|-------------|-----------------------|-------------|
B|-------3-----|-3----2----------|-2-----------|-0---------2---3---0---|-------------|
G|-------------|-----------------|-------3-----|-----------------------|-2-----------|
D|-4-----------|-----------------|-------------|-----------------------|-------4-----|
A|-------------|-----------------|-------------|-----------------------|-------------|
E|-------------|-----------------|-------------|-----------------------|-------------|
                            .
   H     E   E   E   E     H      Q      H     E   E   E   E     H     H       W
E|-----------------------|-------------|-----------------------|-------------|--------|
B|-0---------2---3---0---|-------------|-0---------2---3---0---|-------------|-0------|
G|-----------------------|-2-----------|-----------------------|-2-----------|--------|
D|-----------------------|-------------|-----------------------|-------4-----|--------|
A|-----------------------|-------------|-----------------------|-------------|--------|
E|-----------------------|-------------|-----------------------|-------------|--------|



Leave a Comment

Your email address will not be published. Required fields are marked *

Scroll to Top