Hold Me

Fleetwood Mac – Hold Me 

Verse
G |---------------|---------------|---------------|---------------|
D |---------------|---------------|---------------|---------------|
A |---------------|---------------|--5---5--5---5-|--5---5--5-----|
E |--5---5--3---3-|--5---5--3---3-|---------------|-----------353-|

G |---------------|---------------|---------------|---------------|
D |---------------|---------------|---------------|---------------|
A |---------------|---------------|--5---5--5---5-|--5---5--5-----|
E |--5---5--3---3-|--5---5--3---3-|---------------|-----------353-|

G |---------------|---------------|---------------|---------------|
D |---------------|---------------|---------------|---------------|
A |---------------|---------------|--5---5--5---5-|--5---5--5-----|
E |--5---5--3---3-|--5---5--3---3-|---------------|-----------353-|

G |---------------|---------------|---------------|----------------|
D |---------------|---------------|---------------|----------------|
A |---------------|---------------|--5---5--5---5-|--5---5--5--52--|
E |--5---5--3---3-|--5---5--3---3-|---------------|--------------5-|

Refrein:
G |---------------|---------------|------------------|--------------------|
D |---------------|---------------|------------------|--------------------|
A |---------------|---------------|------------------|--------------------|
E |--3---3--5---5-|--7---7--8---8-|-10---10--10---10-|-10--10-10--10-7-5--|

G |---------------|---------------|------------------|--------------------|
D |---------------|---------------|------------------|--------------------|
A |---------------|---------------|------------------|--------------------|
E |--3---3--5---5-|--7---7--8---8-|-10---10--10---10-|-10---10--10---10---|

Verse
Refrein 2x

Bridge 4x
G |---------------|---------------|---------------|---------------|
D |---------------|---------------|---------------|---------------|
A |---------------|---------------|--5---5--5---5-|--5---5--5---5-|
E |--5---5--3---3-|--5---5--3---3-|---------------|---------------|

Refrein 7x


Enjoy it!  
Comments to [email protected]

Leave a Comment

Your email address will not be published. Required fields are marked *

Scroll to Top