House Of The Rising Sun

-------------------------------------------------------------------------------
			     House Of The Rising Sun - VENTURES
-------------------------------------------------------------------------------
Tabbed by: fishyfish235
Email: [email protected]

This is based on the Live in Japan '65 Version.

The order of the song goes:
INTRO
1ST VERSE
CHORUS
OTHER VERSE
CHORUS
OTHER VERSE
CHORUS
OTHER VERSE
OUTRO

Tuning: Standard

INTRO

G|---------------------------------------------------------------------------|
D|--------------------------3------------------------------------------------|
A|------------3------5--------------------7--3-2--------7--------------------|
E|-----5---------------------------5-------------5---------------------------|

1ST VERSE

G|---------------------------------------------------------------------------|
D|---------------------------3-----------------------------------------------|
A|------------3-------5--------------------3-------7---------------------3---|
E|-----5----------------------------5-----------------------------5----------|

G|---------------------------------------------------------------------------|
D|----------3----------------------------------------------------------------|
A|---5--------------------7--3-2---------------------------------------------|
E|-----------------5---------------------------------------------------------|

CHORUS

G|---------------------------------------------------------------------------|
D|-------------------------3--3-3--------------------------------------------|
A|-----------3--3-3-5--5-5---------------7--3-2--------7---------------------|
E|----5--5-5----------------------5--5-5--------5--5-5-----------------------|

OTHER VERSES

G|---------------------------------------------------------------------------|
D|---------------------------3--3-3------------------------------------------|
A|------------3--3-3--5--5-5---------------3--3-3-7-7-7-7-7-5-3--------3--3-3|
E|-----5--5-5-----------------------5--5-5----------------------5--5-5-------|

G|---------------------------------------------------------------------------|
D|--------3--3-3-------------------------------------------------------------|
A|-5--5-5---------------7-73-2-----------------------------------------------|
E|---------------5--5-5------------------------------------------------------|

OUTRO

G|---------------------------------------------------------------------------|
D|--------------------------3333333------------------------------------------|
A|------------33333335555555--------------7777753----------------------------|
E|-----5555555---------------------5555555-------5---------------------------|


| /  slide up
|   slide down
| h  hammer-on
| p  pull-off
| ~  vibrato
| +  harmonic
| x  Mute note
===============================================================================

Leave a Comment

Your email address will not be published. Required fields are marked *

Scroll to Top