I Build This Garden For Us

I BUILD THIS GARDEN FOR US (Bassline)
As recorded by Lenny Kravitz
(From the 1989 Album LET LOVE RULE)

Words and Music by Lenny Kravitz
Transcribed by Slowhand

Gtr I (E A D G) - 'Lenny Kravitz - Bass'

  Intro
  Q=70
  4/4
  Gtr I
     E E E E E E E E   E E E E E E E E   E E E E E E E E   E E E E E E E E
G||------------------|-----------------|-----------------|------------------|
D||o-----------------|-2-2-2-2-2-2-0-0-|-----------------|-----2-2----------|
A||o-3-3-3-3-2-2-2-2-|-----------------|-3-3-3-3-2-2-2-2-|---------------2--|
E||------------------|-----------------|-----------------|-0-0-----0-0-0----|


   E E E E E E E E   E E E E E E E E   E E E E E E E E   E E E E E E E E
G|-----------------|-----------------|-----------------|-----------------||
D|-----------------|-2-2-2-2-2-2-0-0-|-----------------|-----------------||
A|-3-3-3-3-2-2-2-2-|-----------------|-3-3-3-3-2-2-2-2-|-----------------||
E|-----------------|-----------------|-----------------|-0-0-0-0-0-0-0-2-||


 1st - 3rd Verses
   E E E E E E E E   E E E E E E E E   E E E E E E E E   E E E E E E E E
G|-----------------|-----------------|-----------------|-----------------|
D|-----------------|---------5-4-2---|-----------------|---------2-0-----|
A|-----------------|---------------0-|-1-1-1-1-0-0-0-0-|-------------2---|
E|-3-3-3-3-3-3-3-4-|-5-5-5-5---------|-----------------|-3-3-3-3-------0-|


   E E E E E E E E   E E E E E E E E   E E E E E E E E   E E E E E E E E
G|-----------------|-----------------|-----------------|-----------------|
D|-----------------|---------5-4-2---|-----------------|-----------------|
A|-----------------|---------------0-|-1-1-1-1-0-0-0-0-|-------------0-2-|
E|-3-3-3-3-3-2-3-4-|-5-5-5-5---------|-----------------|-3-3-3-3-3-3-----|


   E E E E E E E E   E E E E E E E E   E E E E E E E E   E E E E E E E E
G|-----------------|-----------------|-----------------|-----------------|
D|-----------------|---------------1-|-2-2-----2-2-----|-----------------|
A|-3-3-3-3-3-3-3-3-|-2-2-2-2-2-2-2---|-----------------|---------------2-|
E|-----------------|-----------------|-----0-0-----0-0-|-5-5-5-5-5-5-5---|


   E E E E E E E E   E E E E E E E E   E E E E E E E E   E E E E E E E E  3x
G|-----------------|-----------------|-----------------|---------0--------||
D|-----------------|---------------1-|-2-2-----2-2-----|-------2---4-2-0-o||
A|-3-3-3-3-3-3-3-3-|-2-2-2-2-2-2-2---|-----------------|-0-0-4-----------o||
E|-----------------|-----------------|-----0-0-----0-0-|------------------||


 Chorus
   E E E E E E E E   E E E E E E E E   E E +S  S S S E S S S S S S
G|-----------------|-----------------|-----------------------------|
D|-----------------|-----------------|-----------------------------|
A|-----------------|-----------------|-----------0-1-3-3-3---------|
E|-3-3-3-3-3-2-3-4-|-5-5-5-5-4-4-4-4-|-3-3-(3)-4-----------0-0-1-2-|


   S S S S S S S S S S S S S S S S     E E E E E E E E   E E E E E E E E
G|---------------------------------||------------------|------------------|
D|-----5-5-3-0---------------------||o-----------------|-2-2-2-2-2-2-0-0--|
A|-------------3-2---------0-0-2-2-||o-3-3-3-3-2-2-2-2-|------------------|
E|-3-3-------------1-1-3-3---------||------------------|------------------|


   E E E E E E E E   E E E E E E E E     Q  Q  H      Wx2           W
G|-----------------|------------------||------------|------------|-------||
D|-----------------|-------------2-2-o||------------|------------|-------||
A|-3-3-3-3-2-2-2-2-|-----------------o||------------|------------|-------||
E|-----------------|-0-0-0-0-0-0------||-0----------|------------|-/5----||


  Outro
     E E E E E E E E   E E S S S S S S S S Q
G||------------------|------------------------|
D||o-----------------|-----------------0-2-0--|
A||o-----------------|-5-5-5-0-----0-2--------|
E||--5-5-5-5-2-2-2-2-|---------2-3------------|


   E E E E E E +S  S S S   E E E E S S S S S S S S   5x
G|-----------------------|---------------------------||
D|-------------------0-1-|-2-2-2-2-2-2-2-2----------o||
A|---------2-2-(2)-0-----|--------------------------o||
E|-5-5-5-5---------------|-----------------0-0-0-0---||

************************************
Duration Legend

W - whole; H - half; Q - quarter; E - 8th; S - 16th; a - acciaccatura; 
+ - note tied to previous; . - note dotted;
Duration letters will always appear directly above the note/fret number it represents the
duration for.  Duration letters with no fret number below them represent rests.
Uncapitalized letters represent notes that are staccato (1/2 duration). 

|  (n)   -  note tied to previous
|   /    -  slide into (from "nowhere")
|   |    -  bar
|   ||   -  double bar
|  ||o   -  repeat start
|  o||   -  repeat end
**************************************

Leave a Comment

Your email address will not be published. Required fields are marked *

Scroll to Top