If God Will Send His Angels

Main Riff
e |----------------------------------|---6------------------------------|
B |-7------7-7------9------9-9-------|-9---9--7-------------------------|
G |-8------8-8------8------8-8-------|----------8-----------------------|
D |----------------------------------|----------------------------------|
A |----------------------------------|----------------------------------|
E |----------------------------------|----------------------------------|

Chorus
e |------6---6---6---6---6---6---6---|----------------------------------|
B |----9---9---9---9---7---7---7---7-|----------------------------------|
G |----------------------------------|----------------------------------|
D |----------------------------------|----------------------------------|
A |----------------------------------|----------------------------------|
E |----------------------------------|----------------------------------|


Tab by Paolo Bovio and Adriano Bovio - [email protected] 

Leave a Comment

Your email address will not be published. Required fields are marked *

Scroll to Top