I’m A Man

Intro:
G|---------------------------------------------------------------------|
D|---------------------------------------------------------------------|
A|----------------3---------------3---------------3--33-----------3--33|
E|----------3---5-----------3---5-----------3---5-----------3---5------|

After that, just play this over and over on the verses:

G|--------------------------------|
D|--------------------------------|
A|------3--3--3--3------3--3--3--3|
E|3---5-----------3---5-----------|

Choruses:

G|----------------------------------------------------------------|
D|2-2-2-2-2-2-2-2-0-0-0-0-----------------------------------------|
A|------------------------4-4-4-4-3--3--3--3------3--3--3--3------|
E|------------------------------------------3---5-----------3---5-|

G|----------------------------------------------------------------|
D|2-2-2-2-2-2-2-2-0-0-0-0-----------------------------------------|
A|------------------------4-4-4-4-3--3--3--3------3--3--3--3------|
E|------------------------------------------3---5-----------3---5-|

And then back to the verse part.
MOST EXCELLENT SONG,DUDE!

Leave a Comment

Your email address will not be published. Required fields are marked *

Scroll to Top