Kraid’s Lair (Metroid) Guitar Tab

Metroid
Kraid's Lair

7/22/06

e-------------------------
B-------------------------
G--------2----------------
D--2-----------4---0------
A------2-----3-------2---1
E------------------------- x4

e-------------------------
B-------------------------
G--0-----------------2----
D------0-2-----4---0-----2
A------------2------------
E------------------------- x2

e-------------------------------------------------
B-------------------------------------------------
G--0---0---0---3---3---3---2---2---2---2-------4--
D----2---2---2---4---4---4---3---3---3-----4-----4
A----------------------------------------6---6----
E------------------------------------------------- x4

If you can play this next part at the right speed, then you are godlike :) 

e--------------2-----------5-2-----------------0
B--------0-3-0---3-------0-----3-------------3--
G----0-2-----------2-0-----------2-0-----0-2----
D--4-------------------4-------------4-2--------
A-----------------------------------------------
E----------------------------------------------- x2

e--5-3-2-0-2-3
B-------------
G-------------
D-------------
A-------------
E------------- x4

Leave a Comment

Your email address will not be published. Required fields are marked *

Scroll to Top