Let It Be

-------------------------------------------------------------------------------
			     Let it be - The Beatles
-------------------------------------------------------------------------------

Tabbed By: emorhys 


Tuning: Standard (GDAE)

Intro/ Verse:
G|-------------------------------------------------------------|
D|------------------------------------------------3--2--0-----:|
A|----3--3-----------------------3--3----------------------3--:|
E|-----------3--3---5--5---1-1---------3--3--------------------|

Chorus:
G|-------------------------------------------------------------|
D|-------------------------------------------------3--2--0-----|
A|--------------------------3--3---3--3---------------------3--|
E|----5--5---3--3---1--1------------------3--3-----------------|

G|-------------------------------------------------------------|
D|----3--2--0--------------------------------------------------|
A|--------------3--2--0---------3------------------------------|
E|-------------------------3--2--------------------------------|


| /  slide up
|   slide down
| h  hammer-on
| p  pull-off
| ~  vibrato
| +  harmonic
| x  Mute note

Leave a Comment

Your email address will not be published. Required fields are marked *

Scroll to Top