Live and Learn (Sonic Adventure 2) Guitar Tab

Live & Learn Solo

e-14b-12-----------12-------------------------
B--------14~--12-14--14-12--------------------
G-------------------------14-11---------------
D------------------------------14-11-14S16-14-
A---------------------------------------------
E---------------------------------------------

e----------------------------------------
B----------------------------15b---------
G--------------------15b--------16-14S16-
D----------13b----------16-14------------
A-16-14S12-----14-12---------------------
E----------------------------------------
            A.H.

e-------------------19------------17-16---------
B-17--19--17-19b-17------------------------------
G---16--16---------------/14-16-17-------17-14~--
D------------------------------------------------
A------------------------------------------------
E------------------------------------------------

e----------------------------------
B-------------------------14b~-----
G-------------------13-15----------
D-------14-------14----------------
A----14----16-16-------------------
E-16-------------------------------

e--------17--------------------------------------
B-16b-14--------------------------------------16b~
G--------------------------------13--13-15b-13----
D--------------------13--13141314--14-------------
A--------------141214--14-------------------------
E-------------------------------------------------

e------------------------------------
B-------------22-21------------22-21-
G----18-17-20---------18-17-17-------
D-18----------------18---------------
A------------------------------------
E------------------------------------

e--21-20----------------------------
B------------------------------------
G------------------------------------
D------------------------------------
A------------------------------------
E------------------------------------
There's a face searching far, so far and wide.... blah blah

Leave a Comment

Your email address will not be published. Required fields are marked *

Scroll to Top