Live Forever

Intro

D|----------------------------------------------------------------------------------|
A|----------------------------------------------------------------------------------|
F|----------------------------------------------------------------------------------|
C|-------2h4p2-----1---------------1--------------2h4p2-----1---------------1-------|
G|--------------3-----3-------2---------2----------------3-----3-------2---------2--|
D|--4--------------------3-------------------4--------------------3-----------------|

D|------------------------------------------------------------------------------------------------------|
A|------------------------------------------------------------------------------------------------------|
F|------------------------------------------------------------------------------------------------------|
C|-------2h4p2-----1---------------1--------------------1-------------------1-------------------1-------|
G|--------------3-----3-------2---------2----------2---------2---------2---------2---------2---------2--|
D|--4--------------------3--------------------0-------------------2-------------------0-----------------|

D|----------------------------------------------------------------------------------------------------|
A|----------------------------------------------------------------------------------------------------|
F|----------------------------------------------------------------------------------------------------|
C|------------1-------------------1-------------------1-------------------1-------------------1-------|
G|-------2---------2---------2---------2---------2---------2---------2---------2---------2---------2--|
D|--2-------------------0-------------------2-------------------0-------------------2-----------------|

D|----------------------------------------|
A|----------------------------------------|
F|----------------------------------------|
C|------------1-------------------1-------|
G|-------2---------2---------2---------2--|
D|--0-------------------2-----------------|


************************************

h    Hammer on
p    Pull off

************************************

Leave a Comment

Your email address will not be published. Required fields are marked *

Scroll to Top