Lyra’s Theme (Pokémon HeartGold & SoulSilver) Guitar Tab

Title: Lyra's Theme
Album: Pokémon HeartGold/SoulSilver
Music: Shota Kageyama
Tabber: H.F.

Tempo = 106

Legend
L - tied note


E |-----------------7-----10L10------------------------||
B |--0--------8-----8-----8L-8-------------------------||
G |--0h-7-----7-----7-----7L-7-------------------------||
D |----------------------------------------------------||
A |--0--------0-----0-----0L-0-------------------------||
E |----------------------------------------------------||


-------------2--3-----5L-5-----------5-----7-------|
-3--------------------------2----------------------|
o2--------------------------2----------------------|
o0-------------------------------------------------|
-------------------------4-------------------------|
---------------------------------------------------|


-----------------------2L-2-------------------------|
--3-----------3--5-----------2--------3-------------|
--2--------------------------2--------2-------------|
----------------------------------------------------|
--2-------------------------------------------------|
--------------------------2-----------2-------------|


--------------------------------------------5-------|
--------0-----0--2-----3L-3-----------3-------------|
--0-----------------------------2-------------------|
----------------------------------------------------|
----------------------------------------------------|
--3-----------------------2-------------------------|


--3-----2-----3--5-----2L-2-----------0-------------|
--0--------------------------2--------2-------------|
-----------------------------2--------2-------------|
----------------------------------------------------|
--------------------------0-------------------------|
--0-------------------------------------------------|


--------------------------------10----9-------------|
--------7-----7--8-----10-------------------10------|
--7-------------------------------------------------|
--0-------------------------------------------------|
----------------------------------------------------|
--------------------------9-------------------------|


--0-----------------------------------0-------------|
--7-----------7--8-----7--------------0-----7-------|
-----------------------------8----------------------|
-----------------------------7----------------------|
--------------------------------------6-------------|
--8-----------------------7-------------------------|


--3-----------5--7-----5L-5-----------2-------------|
--0-----------------------2-------------------------|
--0-----------------------2-------------------------|
----------------------------------------------------|
----------------------------------------------------|
--0-----------------------2-------------------------|


--3-----------3--5-----2L-2-----------0-------------|
--3-----7--------------------3--------3-------------|
--3--------------------------3--------3-------------|
----------------------------------------------------|
--------------------------3-----------------3-------|
--3-------------------------------------------------|


-----------------2--------------------2-------------|
--3-----------3--------2L-2-------------------------|
--4--------------------2----------------------------|
----------------------------------------------------|
--2-----------------------0-------------------------|
----------------------------------------------------|


--------------------------------------------5-------|
--0-----------0--3--------------------3-------------|
--0--------------------2L-2-------------------------|
----------------------------------------------------|
----------------------------------------------------|
--3-----------------------2-------------------------|


--4-----------------------0-----------2h-4-----5L---|
--3-----------------------0-----------3-------------|
--------------------------1-------------------------|
--2-----------------------------------2-------------|
----------------------------------------------------|
----------------------------------------------------|


--5--------------------------------------0L-0------||-------||
--3-----------------------2-----2--3---------------||--3----||
--2--------------------------------------2L-2-----o||--2----||
--------------------------------------------------o||--0----||
--0-----------------------0--------2-----4L-4------||-------||
---------------------------------------------------||-------||

Leave a Comment

Your email address will not be published. Required fields are marked *

Scroll to Top