Mabe Village (Legend of Zelda: Link’s Awakening) Guitar Tab

Mabe Village
The Legend of Zelda: Link's Awakening
Composed by Koji Kondo

Guitar
     E  E  E  E  E  E  E  E     E  E  E  E  E  E  E  E
E||--------------------------|--------------------------|
B||--------------------------|--------------------------|
G||--------------------------|--------------------------|
D||-----0-----0-----0-----0--|-----0-----0-----0-----0--|
A||--------------------------|--------------------------|
E||--3-----3-----3-----3-----|--3-----3-----3-----3-----|

    E  E  E  E  E  E  E  S S    E  E  E  E  E  E  E  S S
|----------------------------|---------------------------|
|---3--------------------0-1-|--3--3-----------------0-1-|
|*--------0-----2------------|--------0--0--2------------|
|*-----0-----0-----2-----2---|-----4-----4-----2-----2---|
|----------------------------|---------------------------|
|---3-----3-----3-----3------|--3-----3-----3-----3------|

  E  E  E  E  E  E  E  E     E  S S E  E  E  E  S S S S
--------5--------3--5--3--|-----------------------------|
-----3--------------------|--3--1-0---------------0---3-|
--4-----------------------|---------2---------------5---|
--------------------------|-----2------2--4-------------|
-----5-----5-----6-----6--|---------------5--5--7---5---|
--3-----3-----3-----3-----|--3------3-------------------|

  E  E  E  E  E  E  E  S S    E  E  E  E  E  E  E  S S
--0----------------------0-|---------------------------|
---------------------------|--3--3---------------------|
--------0--------------2---|-----2-----2--0--------0---|
--------------4------------|--------4--4--2-----2----4-|
--3-----3-----3-----3------|--2-----2--------2-----2---|
-----3-----3-----5-----5---|---------------------------|

  E  E  E  E  E  E  E  E     E  E  E  E  E  E  E  E
--------------------------|--------------------------|
--------0-----------------|-----3-----3-----3-----3--|
-----0-----------2--0-----|--------------------------|
--2--2-----2-----------1--|--0-----0-----0-----0-----|
--0-----0-----0-----------|--5-----------3-----------|
--------------------------|--------------------------|

  E   E  E   E  E   E  E   E       W                   W
-----10-----10-----10-----10---||-------------------|-------------------||
-------------------------------||-------------------|-------------------||
--7------7------7------7------*||-------------------|-------------------||
------------------------------*||-------------------|-------------------||
-------------------------------||-------------------|-------------------||
--7-------------5--------------||-------------------|-------------------||

Duration Legend
---------------
W - whole
H - half
Q - quarter
E - 8th
S - 16th
T - 32nd
X - 64th
. - note dotted
|-n-|  - n-tuplets

Leave a Comment

Your email address will not be published. Required fields are marked *

Scroll to Top