Main Theme (Moon Patrol) Bass Tab

                Moon Patrol (Arcade) - Main Theme BASS TAB
                            (Composer unknown)

                 Tabbed by auriplane ([email protected])



    Four-string bass, standard tuning.


G |----------------|----------------|----------------|----------------|
D |----------------|----------------|----------------|----------------|
A |----7-75-5--5-7-|----7-75-5------|----7-75-5--5-7-|----7-75-5------|
E |0-0-------7-----|0-0-------7-567-|0-0-------7-----|0-0-------7-567-|


G |----------------|----------------|----------------|----------------|
D |----7-75-5--5-7-|----7-75-5------|----------------|----------------|
A |----------7-----|----------7-567-|----7-75-5--5-7-|----7-75-5------|
E |5-5-------------|5-5-------------|0-0-------7-----|0-0-------7-567-|


G |----------------|----------------|----------------|----------------|
D |----9-97-7--7-9-|----7-75-5--5-7-|----------------|----------------|
A |----------9-----|----------7-----|----7-75-5--5-7-|----------------|
E |7-7-------------|5-5-------------|0-0-------7-----|00-044-455-566-7|



    Five-string version, standard tuning.

G |----------------|----------------|----------------|----------------|
D |----------------|----------------|----------------|----------------|
A |----7-75-5--5-7-|----7-75-5------|----7-75-5--5-7-|----7-75-5------|
E |----------7-----|----------7-567-|----------7-----|----------7-567-|
B |5-5-------------|5-5-------------|5-5-------------|5-5-------------|


G |----------------|----------------|----------------|----------------|
D |----7-75-5--5-7-|----7-75-5------|----------------|----------------|
A |----------7-----|----------7-567-|----7-75-5--5-7-|----7-75-5------|
E |5-5-------------|5-5-------------|----------7-----|----------7-567-|
B |----------------|----------------|5-5-------------|5-5-------------|


G |----------------|----------------|----------------|----------------|
D |----9-97-7--7-9-|----7-75-5--5-7-|----------------|----------------|
A |----------9-----|----------7-----|----7-75-5--5-7-|----------------|
E |7-7-------------|5-5-------------|----------7-----|----44-455-566-7|
B |----------------|----------------|5-5-------------|55-5------------|

Leave a Comment

Your email address will not be published. Required fields are marked *

Scroll to Top