Mission 1 (Double Dragon) Guitar Tab

Mission 1   
~Double Dragon~
Composed by: Kazunaka Yamane
Arranged by: Zelos                                 


Guitar
BPM = 160  
Difficulty: Most of it should be easy, but some parts are very, very hard. :)
If you're having problems, try leaving ou some notes.
To play it on electric guitar, just play one of the two notes at the beginning.



     E   S S  S E.   S S  S E.   S S    E   S S  S S  Q.      Q     
E||-----12---10-----12---10-----12---|-----12---10---15------13----|
B||-----13---12-----13---12-----13---|-----13---12---15------15----|
G||----------------------------------|-----------------------------|
D||----------------------------------|-----------------------------|
A||----------------------------------|-----------------------------|
E||----------------------------------|-----------------------------|


  E   S S  S E.   S S  S E.   S S    E   S S  S S  Q.      Q     
-----12---10-----12---10-----12---|-----12---10---13------15----|
-----13---12-----13---12-----13---|-----13---12---15------17----|
----------------------------------|-----------------------------|
----------------------------------|-----------------------------|
----------------------------------|-----------------------------|
----------------------------------|-----------------------------|


  E   S S  S E.   S S  S E.   S S    E   S S  S S  Q.      Q     
-----12---10-----12---10-----12---|-----12---10---15------13----|
-----13---12-----13---12-----13---|-----13---12---15------15----|
----------------------------------|-----------------------------|
----------------------------------|-----------------------------|
----------------------------------|-----------------------------|
----------------------------------|-----------------------------|


  E   S S  S E.   S S  S E.   S S    E   S E.   E   E   E   E   E   
-----12---10-----12---10-----15---|-----17-------------------------|
-----13---12-----13---12-----17---|-----18-------------------------|
----------------------------------|------------------------12--14--|
----------------------------------|--------------------14----------|
----------------------------------|------------15--17--------------|
----------------------------------|--------------------------------|


  E   S S  S E.   S S  S E.   S S    E   S S  S S  Q.      Q     
-----12---10-----12---10-----12---|-----12---10---15------13----|
-----13---12-----13---12-----13---|-----13---12---15------15----|
----------------------------------|-----------------------------|
----------------------------------|-----------------------------|
----------------------------------|-----------------------------|
----------------------------------|-----------------------------|


  E   S S  S E.   S S  S E.   S S    E   S S  S S  Q.      Q     
-----12---10-----12---10-----12---|-----12---10---13------15----|
-----13---12-----13---12-----13---|-----13---12---15------17----|
----------------------------------|-----------------------------|
----------------------------------|-----------------------------|
----------------------------------|-----------------------------|
----------------------------------|-----------------------------|


  E   S S  S E.   S S  S E.   S S    E   S S  S S  Q.      Q     
-----12---10-----12---10-----12---|-----12---10---15------13----|
-----13---12-----13---12-----13---|-----13---12---15------15----|
----------------------------------|-----------------------------|
----------------------------------|-----------------------------|
----------------------------------|-----------------------------|
----------------------------------|-----------------------------|


  E   S S  S E.   S S  S E.   S S    E   S E.   E   E   E   E   E   
-----12---10-----12---10-----15---|-----17-------------------------|
-----13---12-----13---12-----17---|-----18-------------------------|
----------------------------------|------------------------12--14--|
----------------------------------|--------------------14----------|
----------------------------------|------------15--17--------------|
----------------------------------|--------------------------------|


   E  E   E   E  E  E   E   E      E   E   E   E   E   E   E   E   
------8----------8-------------|------10----------10--------------|
---------10---------8--10------|----------12----------10--12------|
--10---------10------------10--|--12----------12--------------12--|
-------------------------------|----------------------------------|
-------------------------------|----------------------------------|
-------------------------------|----------------------------------|


   E   E   E   E   E   E   E   E      E   E   E   E   E   E   E   E   
------12----------12----------12--|--17------15------13------12------|
----------13--------------13------|------18------17------15------13--|
--14----------14------14----------|----------------------------------|
----------------------------------|----------------------------------|
----------------------------------|----------------------------------|
----------------------------------|----------------------------------|


   E  E   E   E  E  E   E   E      E   E   E   E   E   E   E   E   
------8----------8-------------|------10----------10--------------|
---------10---------8--10------|----------12----------10--12------|
--10---------10------------10--|--12----------12--------------12--|
-------------------------------|----------------------------------|
-------------------------------|----------------------------------|
-------------------------------|----------------------------------|


   E   E   E   E   E   E   E   E      S  S  S  S  S  S  S  S  S  S  S  S  S  S  S  S  
------12----------12----------12--|-----------------------------------------------12-|
----------13--------------13------|-----------------------12----------12-------12----|
--14----------14------14----------|--------------------------------13-------13-------|
----------------------------------|-----------14-------14-------14-------14----------|
----------------------------------|-----12-14----12-14-------14----------------------|
----------------------------------|--12----------------------------------------------|


  E   S S  S E.   S S  S E.   S S    E   S S  S S  Q.      Q     
-----12---10-----12---10-----12---|-----12---10---15------13----|
-----13---12-----13---12-----13---|-----13---12---15------15----|
----------------------------------|-----------------------------|
----------------------------------|-----------------------------|
----------------------------------|-----------------------------|
----------------------------------|-----------------------------|


  E   S S  S E.   S S  S E.   S S    E   S S  S S  Q.      Q     
-----12---10-----12---10-----12---|-----12---10---13------15----|
-----13---12-----13---12-----13---|-----13---12---15------17----|
----------------------------------|-----------------------------|
----------------------------------|-----------------------------|
----------------------------------|-----------------------------|
----------------------------------|-----------------------------|


  E   S S  S E.   S S  S E.   S S    E   S S  S S  Q.      Q     
-----12---10-----12---10-----12---|-----12---10---15------13----|
-----13---12-----13---12-----13---|-----13---12---15------15----|
----------------------------------|-----------------------------|
----------------------------------|-----------------------------|
----------------------------------|-----------------------------|
----------------------------------|-----------------------------|


  E   S S  S E.   S S  S E.   S S    E   S E.   E   E   E   E   E   
-----12---10-----12---10-----15---|-----17-------------------------|
-----13---12-----13---12-----17---|-----18-------------------------|
----------------------------------|------------------------12--14--|
----------------------------------|--------------------14----------|
----------------------------------|------------15--17--------------|
----------------------------------|--------------------------------|


  E   S S  S E.   S S  S E.   S S    E   S S  S S  Q.      Q     
-----12---10-----12---10-----12---|-----12---10---15------13----|
-----13---12-----13---12-----13---|-----13---12---15------15----|
----------------------------------|-----------------------------|
----------------------------------|-----------------------------|
----------------------------------|-----------------------------|
----------------------------------|-----------------------------|


  E   S S  S E.   S S  S E.   S S    E   S S  S S  Q.      Q     
-----12---10-----12---10-----12---|-----12---10---13------15----|
-----13---12-----13---12-----13---|-----13---12---15------17----|
----------------------------------|-----------------------------|
----------------------------------|-----------------------------|
----------------------------------|-----------------------------|
----------------------------------|-----------------------------|


  E   S S  S E.   S S  S E.   S S    E   S S  S S  Q.      Q     
-----12---10-----12---10-----12---|-----12---10---15------13----|
-----13---12-----13---12-----13---|-----13---12---15------15----|
----------------------------------|-----------------------------|
----------------------------------|-----------------------------|
----------------------------------|-----------------------------|
----------------------------------|-----------------------------|


  E   S S  S E.   S S  S E.   S S    E   S E.   E   E   E   E   E   
-----12---10-----12---10-----15---|-----17-------------------------|
-----13---12-----13---12-----17---|-----18-------------------------|
----------------------------------|------------------------12--14--|
----------------------------------|--------------------14----------|
----------------------------------|------------15--17--------------|
----------------------------------|--------------------------------|


   E  E   E   E  E  E   E   E      E   E   E   E   E   E   E   E   
------8----------8-------------|------10----------10--------------|
---------10---------8--10------|----------12----------10--12------|
--10---------10------------10--|--12----------12--------------12--|
-------------------------------|----------------------------------|
-------------------------------|----------------------------------|
-------------------------------|----------------------------------|


   E   E   E   E   E   E   E   E      E   E   E   E   E   E   E   E   
------12----------12----------12--|--17------15------13------12------|
----------13--------------13------|------18------17------15------13--|
--14----------14------14----------|----------------------------------|
----------------------------------|----------------------------------|
----------------------------------|----------------------------------|
----------------------------------|----------------------------------|


   E  E   E   E  E  E   E   E      E   E   E   E   E   E   E   E   
------8----------8-------------|------10----------10--------------|
---------10---------8--10------|----------12----------10--12------|
--10---------10------------10--|--12----------12--------------12--|
-------------------------------|----------------------------------|
-------------------------------|----------------------------------|
-------------------------------|----------------------------------|


   E   E   E   E   E   E   E   E      S  S  S  S  S  S  S  S  S  S  S  S  S  S  S  S  
------12----------12----------12--|-----------------------------------------------15-|
----------13--------------13------|-----------------------15----------15-------15----|
--14----------14------14----------|--------------------------------16-------16-------|
----------------------------------|-----------17-------17-------17-------17----------|
----------------------------------|-----15-17----15-17-------17----------------------|
----------------------------------|--15----------------------------------------------|


   W                   E  S S E  E  E  E  E  E      Q     E.   T  T  E   E   E   E   
--15----------------|--L------6--8--6-----------|--13----11---10-11-10--------------|
--------------------|-----6-8----------8--6--8--|-----------------------11----------|
--------------------|---------------------------|---------------------------12--10--|
--------------------|---------------------------|-----------------------------------|
--------------------|---------------------------|-----------------------------------|
--------------------|---------------------------|-----------------------------------|


  E   E  H         E  E     S S S S S S S S S S S  S  S  S  S  S  
-------------------------|--------------------6-8-10-11-10-11-13-|
---------8---------------|--------------6-8-9--------------------|
--8---------------10--8--|--7-5---5-7-8--------------------------|
-----10------------------|------6--------------------------------|
-------------------------|---------------------------------------|
-------------------------|---------------------------------------|


   S  S  S  S  S  S  S  S  S  S  S  S  S  S  S  S     S  S  H.            S  S  
--15----16----18----16----15----13----15----16----|--15-16-15------------13-15-|
-----13----13----13----13----13----13----13----13-|----------------------------|
--------------------------------------------------|----------------------------|
--------------------------------------------------|----------------------------|
--------------------------------------------------|----------------------------|
--------------------------------------------------|----------------------------|


   H.            Q        Q.      E   H           E   E   E   E   E   E   E   E   
--20------------19----|--17--------------------|-----------------------------10--|
----------------------|----------17------------|-------------12--13--12--13------|
----------------------|--------------17--------|---------14----------------------|
----------------------|------------------------|-----14--------------------------|
----------------------|------------------------|---------------------------------|
----------------------|------------------------|---------------------------------|


   S  S  H.            S  S     W                   E   E   E   Q     E   E   E   
----------------------------|--15----------------|-------------12------------12--|
--12-13-12------------10-12-|--------------------|-------------------------------|
----------------------------|--------------------|---------14------------14------|
----------------------------|--------------------|-----14------------14----------|
----------------------------|--------------------|-------------------------------|
----------------------------|--------------------|-------------------------------|


  E   E   E   Q     E   E   E      S  S  S  S  S  S  S  S  S  S S  S S S S S  
--L----------12------------12--|--16-13-16-13-12-13-12-10-12-10-8-10-8-7-8-7-|
-------------------------------|---------------------------------------------|
---------14------------14------|---------------------------------------------|
-----14------------14----------|---------------------------------------------|
-------------------------------|---------------------------------------------|
-------------------------------|---------------------------------------------|


  S S S S S S S S S S S S S S S S   
--5-7-5-4-5-4-1-4-1-0-1-0---------||
--------------------------3-5-3-0-||
----------------------------------||
----------------------------------||
----------------------------------||
----------------------------------||




Duration Legend
---------------
W - whole
H - half
Q - quarter
E - 8th
S - 16th
. - note dotted
|-n-|  - n-tuplets


Tablature Legend
----------------
L - tied note

Leave a Comment

Your email address will not be published. Required fields are marked *

Scroll to Top