My love

MY LOVE

Paul McCartney

VERSE

  00:05

G|---------------------------------|---------------------------------|
D|-----------------------------12-|---------------------------------|
A|---------------------------------|---------------------------------|
E|-6-------------------------------|-6-------------------------------|

G|---------------------------------|---------------------------------|
D|---------------------------------|---------------------------------|
A|---------------------------------|-5-------3-------1---------------|
E|-5-------------5-5---------------|-------------------------5-------|

G|---------------------------------|---------------------------------|
D|---------------------------------|---------------------------------|
A|---------------------------------|---------------------------------|
E|-3-------------3-3---------------|-5---------------6---------------|

G|---------------------------------|
D|---------------------------------|
A|---------------------------------|
E|-7-7-7-7-7---7-7-7-7-7-7-7-7-7-7-|

CHORUS

  00:33

G|---------------------------------|---------------------------------|
D|---------------------------------|-------------5-------------3-----|
A|---------------------------------|-----------------------------5-3-|
E|-1-----------1---------------1-1-|-3-------------------------------|

G|---------------------------------|---------------------------------|
D|---------------------------------|---------------------------------|
A|-1-------1-----------1-------3---|---------------------------------|
E|---------------------------------|-1-------------1-1-----------1-3-|

VERSE

  00:49

G|-----------------------------10-|---------------------------------|
D|---------------------------------|---------------------------------|
A|---------------------------------|---------------------------------|
E|-6-------------------------------|-6-------------------------------|

G|---------------------------------|---------------------------------|
D|---------------------------------|---------------------------------|
A|-------------------------------3-|-5-------3-------1---------------|
E|-5-------------5-5---------------|-------------------------5-------|

G|---------------------------------|---------------------------------|
D|---------------------------------|---------------------------------|
A|---------------------------------|---------------------------------|
E|-3-------3-3-3-3-3-3-3-3-3---3-4-|-5---5---5---5-5-6---6---6---6---|

G|---------------------------------|
D|---------------------------------|
A|---------------------------------|
E|-7-7-7-7-7-7-7-7-7-7-7-7-7-7-7---|

CHORUS

  01:17

G|---------------------------------|---------------------------------|
D|---------------------------------|-------------5-----------3-------|
A|---------------------------------|-----------------------------5---|
E|-1-----------1-------------------|-3-------------------------------|

G|---------------------------------|---------------------------------|
D|---------------------------------|---------------------------------|
A|-1---------------1---1-----------|---------------------------------|
E|---------------------------------|-1-----------1---1-------1---2---|

BRIDGE

  01:33

G|---------------------------------|---------------------------------|
D|---------3-------2-----------2---|-3-------------------------------|
A|-------------------------3-------|---------3---3-------------------|
E|-3-------------------------------|-----------------5---5---3---5---|

G|---------------------------------|---------------------------------|
D|---------------------------------|---------------------------------|
A|-1-----1-1---1---3-------3---3---|-----------------------------0---|
E|---------------------------------|-1---1---3---4---5---5---3-----1-|

G|---------------------------------|---------------------------------|
D|-----5-5-3---3-5-------------2---|-3-------------------------------|
A|-----------------7-------3-------|---------3---3-------------------|
E|-3-------------------------------|-----------------5-------3---5---|

G|---------------------------------|---------------------------------|
D|---------------------------------|---------------------------------|
A|-1---------------3---------------|---------------------------------|
E|---------------------------------|-1-------------------------1-3-5-|

GUITAR SOLO

  02:05

G|---------------------------------|---------------------------------|
D|---------------------------------|---------------------------------|
A|-1-------1-----1-1-----1-1-------|-1---1---1---1---1---1-1-1-1-----|
E|---------------------------1-3-5-|---------------------------------|

G|---------------------------------|---------------------------------|
D|---------------------------------|-------4-------------------------|
A|-------------------------------3-|-5---5---3---3-5-2---2-----------|
E|-5-------5---5-5-5---5-5-5---5---|-------------------------5---5---|

G|---------------------------------|---------------------------------|
D|---------------------------------|---------------------------------|
A|---------------------------------|---------------------------------|
E|-3---3---5---3---3---3-3-3-3-3---|-5---5---5---5-5-6---6---6-6-6---|

G|---------------------------------|
D|---------------------------------|
A|---------------------------------|
E|-7-7-7-7-7-7-7-7-7-7-7-7-7-7-7-7-|

CHORUS

  02:33

G|---------------------------------|---------------------------------|
D|---------------------------------|-------------5-------------3-----|
A|---------------------------------|-----------------------------5---|
E|-1-----------1-------------------|-3-------------------------------|

G|---------------------------------|---------------------------------|
D|---------------------------------|---------------------------------|
A|-1---------------1-----------5-3-|---------------------------------|
E|---------------------------------|-1-----------1---1---1---1---3---|

VERSE

  02:49

G|---------------------------------|---------------------------------|
D|-----------------------------8--|---------------------------------|
A|---------------------------------|---------------------------------|
E|-6-------------------------------|-6-------------------------------|

G|---------------------------------|---------------------------------|
D|---------------------------------|---------------------------------|
A|-------------------------------3-|-5---5---3---3---1---1-----------|
E|-5-------------5-5-------5-------|-------------------------5---5---|

G|---------------------------------|---------------------------------|
D|---------------------------------|---------------------------------|
A|---------------------------------|---------------------------------|
E|-3-----------3-3-3-3-3-3-3---3-4-|-5---5---5---5-5-6---6---6---6---|

G|---------------------------------|
D|---------------------------------|
A|---------------------------------|
E|-7-7-7-7-7-7-7-7-7-7-7-7-7-7-7---|

CHORUS

  03:17

G|---------------------------------|---------------------------------|
D|---------------------------------|-------------5-------------------|
A|---------------------------------|---------------------------------|
E|-1-----------1-------------------|-3-------------------------------|

G|-----------------------5/7---5---|---------------------------------|
D|-------------------------------5-|---------------------------------|
A|-1-------1-----------------------|---------------------------------|
E|---------------------------------|-1-------------1-1---1-------1-2-|

BRIDGE

  03:33

G|-------------7------------------|---------------------------------|
D|---------3-------2-----------2---|-3-------------------------------|
A|-------------------------3-------|---------3-----------------------|
E|-3-------------------------------|-----------------5-------3---5---|

G|---------------------------------|---------------------------------|
D|---------------------------------|---------------------------------|
A|---------------------------------|---------------------------------|
E|-6-------------6-8---------------|---------------------------------|

OUTRO

  03:49

G|---------------------------------|---------------------------------|
D|---------------------------------|---------------------------------|
A|---------------------------------|---------------------------------|
E|-1---1---1---1---5---5---5---5---|-6---------------8---------------|

G|---------------------------------|---------------------------------|
D|---------------------------------|---------------------------------|
A|---------------------------------|---------------------------------|
E|-1-------------------------------|---------------------------------|

Leave a Comment

Your email address will not be published. Required fields are marked *

Scroll to Top