My Singing Monsters – Plant Island

This is the full bass line with all the monsters on the 'Plant Island' collected. I am 
working on the tab for 'Cold Island' But I need to breed all the monsters on that island 
first. PLEASE RATE :D

Tuning: Drop D# (D#, A, D, G)

~ Let ring
/ Slide up
 Slide down
x Mute Note

INTRO:

G |---------------------------------|
D |---------------------------------|  Repeat X2
A |---------------------------------|
D#|-5~------0~------5~---/7-/9~-----|

MAIN PART:

G |-----------------1---x---0--010--|
D |---------1---x-----------------31|  Repeat X4
A |-3---x--3------------------------|
D#|---------------------------------|

SECOND PART:

G |---------------------------------|
D |---------------------------------|  Repeat X10
A |-3-3-3-3--------6-6-6-6---------|
D#|---------5-5-5-5---------4-4-4-4-|

Repeat for the rest of eternity.

Depending on the number of monsters you have you can vary the number of times you repeat 
the second part.

Leave a Comment

Your email address will not be published. Required fields are marked *

Scroll to Top