Neon Night (Halo 3: ODST) Guitar Tab

Standard Tuning

Song: Neon Night
Artist: Martin O'Donnell and Michael Salvatori
Album: Halo 3: ODST

Tabbed by Austin (A Dead Fly)

This is just the main part of the song and there are
three instruments: The Piano, The Slide Electric Guitar, and the
Synthesizer.

All instruments transcribed for guitar, written in 4/4, and I've split
it into two parts.


Part A (Bars 1 - 48)

Piano

(Bars 1 - 48)
e|-16---------16-|-------------16-|--------16-----|-----16---------|
B|-----14--------|-14-------------|-14---------14-|-------------14-|
G|---------17----|-----17---------|-----17--------|-17-------------|
D|---------------|----------------|---------------|----------------|
A|---------------|----------------|---------------|----------------|
E|---------------|----------------|---------------|----------------|

e|----16---------|-16-------------|-14---------14-|-------------14-|
B|--------14-----|-----14---------|-----12--------|-12-------------|
G|-17---------17-|-------------17-|---------15----|------15--------|
D|---------------|----------------|---------------|----------------|
A|---------------|----------------|---------------|----------------|
E|---------------|----------------|---------------|----------------|

e|--------14-----|-----14---------|----14---------|-14-------------|
B|-12---------12-|-------------12-|--------12-----|------12--------|
G|-----15--------|-15-------------|-15---------15-|-------------15-|
D|---------------|----------------|---------------|----------------|
A|---------------|----------------|---------------|----------------|
E|---------------|----------------|---------------|----------------|

Play this piano riff four times


Slide Electric Guitar

(Bars 8 - 10)
e|---------------|----------------|---------------|
B|---(4)/////////|/16V------------|Continue-16V---|
G|---------------|----------------|---------------|
D|---------------|----------------|---------------|
A|---------------|----------------|---------------|
E|---------------|----------------|---------------|

(Bars 14 - 16)
e|------(13)/////|/////////16V----|Continue-16V---|
B|---------------|----------------|---------------|
G|---------------|----------------|---------------|
D|---------------|----------------|---------------|
A|---------------|----------------|---------------|
E|---------------|----------------|---------------|

(Bars 19 - 20)
e|---(16)\\14V|Continue-14V----|
B|---------------|----------------|
G|---------------|----------------|
D|---------------|----------------|
A|---------------|----------------|
E|---------------|----------------|

(Bars 25 - 26)
e|---(11)\\\\|9V-------------|
B|---------------|----------------|
G|---------------|----------------|
D|---------------|----------------|
A|---------------|----------------|
E|---------------|----------------|

(Bars 32 - 34)
e|---------------|----------------|---------------|
B|------(11)\\|\\7V---------|Continue-7V----|
G|---------------|----------------|---------------|
D|---------------|----------------|---------------|
A|---------------|----------------|---------------|
E|---------------|----------------|---------------|

(Bars 38 - 42)
e|-------16V-----|Continue-16V----|Continue-16V---|----11///13V----|
B|---------------|----------------|---------------|----------------|
G|---------------|----------------|---------------|----------------|
D|---------------|----------------|---------------|----------------|
A|---------------|----------------|---------------|----------------|
E|---------------|----------------|---------------|----------------|

e|Continue-13V---|
B|---------------|
G|---------------|
D|---------------|
A|---------------|
E|---------------|

(Bars 44 - 45)
e|-9///11V-------|Continue-11V----|
B|---------------|----------------|
G|---------------|----------------|
D|---------------|----------------|
A|---------------|----------------|
E|---------------|----------------|



Part B (Bars 49 - 74)

Piano

(Bars 49 - 73)
e|-13------11-----|-13--14------16-|---------11-----|-11--16--14--13-|
B|-----11------11-|---------11-----|-----11------11-|----------------|
G|----------------|----------------|----------------|----------------|
D|----------------|----------------|----------------|----------------|
A|----------------|----------------|----------------|----------------|
E|----------------|----------------|----------------|----------------|

e|---------11-----|-13--14------16-|---------11-----|-11--16--14--13-|
B|-----11------11-|---------11-----|-----11------11-|----------------|
G|-11-------------|----------------|----------------|----------------|
D|----------------|----------------|----------------|----------------|
A|----------------|----------------|----------------|----------------|
E|----------------|----------------|----------------|----------------|

e|-11------11-----|-13--14------16-|---------11-----|-11--16--14--13-|
B|-----11------11-|---------11-----|-----11------11-|----------------|
G|----------------|----------------|----------------|----------------|
D|----------------|----------------|----------------|----------------|
A|----------------|----------------|----------------|----------------|
E|----------------|----------------|----------------|----------------|

e|---------11-----|-13--14------16-|---------11-----|-11--16--14--13-|
B|-----11------11-|---------11-----|-----11------11-|----------------|
G|-11-------------|----------------|----------------|----------------|
D|----------------|----------------|----------------|----------------|
A|----------------|----------------|----------------|----------------|
E|----------------|----------------|----------------|----------------|

e|-11------11-----|-13--14------16-|---------11-----|-11--16--14--13-|
B|-----11------11-|---------11-----|-----11------11-|----------------|
G|----------------|----------------|----------------|----------------|
D|----------------|----------------|----------------|----------------|
A|----------------|----------------|----------------|----------------|
E|----------------|----------------|----------------|----------------|

e|---------11-----|-13--14------16-|---------11-----|-11--16--14--13-|
B|-----11------11-|---------11-----|-----11------11-|----------------|
G|-11-------------|----------------|----------------|----------------|
D|----------------|----------------|----------------|----------------|
A|----------------|----------------|----------------|----------------|
E|----------------|----------------|----------------|----------------|

e|Continue-13-----|
B|----------------|
G|----------------|
D|----------------|
A|----------------|
E|----------------|


Synthesizer

(Bars 49 - 74)
e|-13V------------|-Continue-13V---|-11V------------|-Continue-11V---|
B|----------------|----------------|----------------|----------------|
G|----------------|----------------|----------------|----------------|
D|----------------|----------------|----------------|----------------|
A|----------------|----------------|----------------|----------------|
E|----------------|----------------|----------------|----------------|

e|-13V------------|-Continue-13V---|-14V------------|-Continue-14V---|
B|----------------|----------------|----------------|----------------|
G|----------------|----------------|----------------|----------------|
D|----------------|----------------|----------------|----------------|
A|----------------|----------------|----------------|----------------|
E|----------------|----------------|----------------|----------------|

Play This 3 Times and on the last one let 14V ring for 2 extra bars


Slide Electric Guitar

(Bars 49 - 51)
e|-(13)///////////|/18V------------|-Continue-18V---|
B|----------------|----------------|----------------|
G|----------------|----------------|----------------|
D|----------------|----------------|----------------|
A|----------------|----------------|----------------|
E|----------------|----------------|----------------|

(Bars 54 - 56)
e|--------11//////|/13V------------|-Continue-13V---|
B|----------------|----------------|----------------|
G|----------------|----------------|----------------|
D|----------------|----------------|----------------|
A|----------------|----------------|----------------|
E|----------------|----------------|----------------|

(Bars 58 - 60)
          Fade In<<<<<
e|-------18WV-----|-Continue-18WV--|-Continue-18WV--|
B|----------------|----------------|----------------|
G|----------------|----------------|----------------|
D|----------------|----------------|----------------|
A|----------------|----------------|----------------|
E|----------------|----------------|----------------|

(Bars 64 - 65)
e|-18WV\\\\\|13WV-----------|
B|----------------|----------------|
G|----------------|----------------|
D|----------------|----------------|
A|----------------|----------------|
E|----------------|----------------|

(Bars 69 - 72)
e|///13V----------|-Continue-13V---|------------18V-|-Continue-18V---|
B|----------------|----------------|----------------|----------------|
G|----------------|----------------|----------------|----------------|
D|----------------|----------------|----------------|----------------|
A|----------------|----------------|----------------|----------------|
E|----------------|----------------|----------------|----------------|

Key
/// Slide Up
\ Slide Down
V   Vibrato
WV  Wide Vibrato
(#) Quiet note/ Ghost note

Listen for timings for the guitar

Email me questions or comments at [email protected]
Message me if you want a guitar pro file, sheet music, or note names.
Please give me credit if you use this tab for a video.

Leave a Comment

Your email address will not be published. Required fields are marked *

Scroll to Top