Not Tomorrow (Silent Hill) Guitar Tab

Not Tomorrow (Blood Tears)

Composed by Akira Yamaoka

Arranged by NorthStar

Capo 3

    E E E E E E E E    E E E E E E E E  
E |------------------|------------------|
B |-----0-------0----|-----0------------|
G |---0---0---0---0--|---0---0-----4-0--|
D |-2-------0--------|-----------4------|
A |------------------|-3-------2--------|
E |------------------|------------------|
					
					%	
    E E E E E E E E    E E E E E E E S S  E E E E E E E E    E E E E S SSSSSE   
E |------------------|------------------|-7-------7--------|-7-----7-7h8-7-----|
B |-----0-------0----|-----0------------|-----0-------0----|-----0---------8---|
G |---0---0---0---0--|---0---0-----4-0h2|---0---0---0---0--|---0---0------4----|
D |-2-------0--------|-----------4------|---------0--------|------------4---4--|
A |------------------|-3-------2--------|-7----------------|-3-----------------|
E |------------------|------------------|------------------|---------7---------|

    E E E E E E E E    E E E E S SSSSSSS   E E E E E E E E    E E E E E E E S S
E |-7-------7--------|-7-----7-7h8-7-----|-3-------2---3-5--|---0-----2-----0h2|
B |-----0-------0----|-----0---------8-8-|-----0-------0----|-----0------------|
G |---0---0---0---0--|---0---0------4----|---0---0---0---0--|---0---0-----4----|
D |---------0--------|------------4---4--|-2-------0--------|-----------4---4--|
A |-7----------------|-3-----------------|------------------|-3-------2--------|
E |------------------|---------7---------|------------------|------------------|

    E E E E E E E E    E E E E E E E S S  E E E E E E E E    E E E E S SSSSSE
E |-3---3-3-2---3-5--|---0-----3---2-0h2|-7-------7--------|-7-----7-7h8-7-----|
B |-----0-------0----|-----0------------|-8---0---7---0----|-5---0---4-----8---|
G |---0---0---0---0--|---0---0-----4----|---0---0---0---0--|---0---0------4----|
D |-2-------0--------|-----------4---4--|------------------|------------4---4--|
A |------------------|-3-------2--------|-7-------5--------|-3-----------------|
E |------------------|------------------|------------------|---------7---------|

                                        To Coda
    E E E E E E E E    E E E E E E E E	   E E E E E E E E    E E E E E E E S S
E |-7-------7--------|-7-----7-7---8-7--||-3-------2---3-5--|---0-----2-----0h2|
B |-8---0---7---0----|-5---0---4--------||-----0-------0----|-----0------------|
G |---0---0---0---0--|---0---0-----4----||---0---0---0---0--|---0---0-----4----|
D |------------------|-----------4---4--||-2-------0--------|-----------4---4--|
A |-7-------5--------|-3----------------||------------------|-3-------2--------|
E |------------------|---------7--------||------------------|------------------|

    E E E E E E E E    E E E E E E E E    E E E E E SE. S S  E E E E E SE.  S S
E |-3---3-3-2---3-5--|---0-----2---3-5--|-7---7-7-10-7--7p5|-7---7-7-12-10--7-5|
B |-----0-------0----|-----0------------|-0-------0-----0--|-0-----------------|
G |---0---0---0---0--|---0---0-----4----|-0-------0--------|-0---5---9---------|
D |-2-------0--------|-----------4---4--|-----5------------|---5---5--------5--|
A |------------------|-3-------2--------|---5---5---5---5--|-3---------10------|
E |------------------|------------------|-3----------------|-------------------|

    E E E E E SE. S S  E E E E E E E E     E E E E E SE. S S  E E E E E SE.  S S
E |-7---7-7-10-7--7p5|-7---3---0---3-5---|-7---7-7-10-7--7p5|-7---7-7-12-10--7-5|
B |-0-------0-----0--|-0-------0-----5---|-0-------0-----0--|-0-----------------|
G |-0-------0--------|-0---5-----0-5-----|-0-------0--------|-0---5---9---------|
D |-----5------------|---5---5-----------|-----5------------|---5---5--------5--|
A |---5---5---5---5--|-3-------3-----3---|---5---5---5---5--|-3---------10------|
E |-3----------------|-------------------|-3----------------|-------------------|

    E E E E E SE. S S  E E E E E E E S S   E E E E E E E E    E E E E E E E E
E |-7---7-7-10-7--7p5|-7---3-------------|------------------|------------------|
B |-0-------0-----0--|-0-----------------|-----0-------0----|-----0------------|
G |-0-------0--------|-0---5-------5-4-2-|---0---0---0---0--|---0---0-----4-0--|
D |-----5------------|---5---5---5-------|-2-------0--------|-----------4------|
A |---5---5---5---5--|-3-------3---------|------------------|-3-------2--------|
E |-3----------------|-------------------|------------------|------------------|

    SSSSSSSSSSSSSSSS   SSSSSSSSE E E E  
E |------------------|------------------|
B |---0---0---0---0--|---0---0----------|
G |--0-0-0-0-0-0-0-0-|--0-0-0-0----4-0--|D.S. al Coda
D |-2---2---0---0----|-----------4------|
A |------------------|-3---3---2--------|
E |------------------|------------------|

  CODA    h p       h p                           h p
    E E E -3- E E E -3-  E E E E E E E S S  E E E -3- E E SSE    E E E E E E Q
E |-3-----353-2-----353|---0-----2-----0h2|-3-----353-2-7--3---|---0-----2-0------|
B |-----0---------0----|-----0------------|-----0---------0----|-----0-------4----|
G |---0---0-----0---0--|---0---0-----4----|---0---0-----0---0--|---0---0-----4----|
D |-2---------0--------|-----------4---4--|-2---------0--------|-----------4------|
A |--------------------|-3-------2--------|--------------------|-3-------2--------|
E |--------------------|------------------|--------------------|------------------|
   
    NH
    ^
E |-12---------------||
B |-12---------------||
G |-12---------------||
D |------------------||
A |------------------||
E |-12---------------||

Leave a Comment

Your email address will not be published. Required fields are marked *

Scroll to Top