Outset Island (Legend of Zelda: The Wind Waker) Guitar Tab

Outset Island                                   


                         koji Kondo,  Kenta Nagata, Hajime Wakai, Toru Minegishi
Track 1 (Capo 1)

Enjoy :D



                                                           ^                 
     E  E  E  E  E  E  E  E     E  E  E  E  E  E  E  E     W                 
E||-----0--------------------|-----------------------0--|--1----------------|
B||--1--1--1--------------1--|--------0--1--3--1--3--1--|--3----------------|
G||--0-----0--0--------0-----|-----2--0--2--4--2--4-----|--4----------------|
D||-----------2--2--2--------|--0--3-----0--------------|--3----------------|
A||--3-----------3--L--------|--------------------------|-------------------|
E||--------------------------|--------------------------|-------------------|


  E  E  E  E  E  E  E  E     E  E  E  E  E  E  E  E   
--------------------------|-----------------------3--|
-----1-----------1--------|-----1-----------1--------|
--------------------------|--------------------------|
--------------------------|--------------------------|
--3-----------3-----------|--3-----------3-----------|
-----------3-----------3--|-----------3-----------3--|


  E  E  E  E  E  E  E  E     E  E  E  E  E  E  E  E   
--0-----------0--------3--|--0-----------0--------3--|
-----------3--------------|-----------3-----0--0--0--|
-----------------0--0-----|-----2--2--------0--0-----|
-----2--2--------2--2-----|-----3--3-----------------|
--3--3--3--------------3--|-----------3--------------|
-----------3--0-----------|--1-----------3--------1--|


  E  E  E  E  E  E  E  E     E  E  E  E  E  E  E  E   
--7--------5--3--------1--|--0--------------------3--|
--------------0-----------|-----------1--3-----------|
--7--------5-----------2--|--0-----------------------|
--------------------------|--0--0-----0--------------|
--7--7-----3--0--0-----0--|--------------------------|
--------------------------|--------------3--3-----3--|


  E  E  E  E  E  E  E  E     E  E  E  E  E  E  E  E   
--0-----------0--------3--|--0-----------0--------3--|
-----------3--------------|-----------3-----0--0--0--|
-----------------0--0-----|-----2--2--------0--0-----|
-----2--2--------2--2-----|-----3--3-----------------|
--3--3--3--------------3--|-----------3--------------|
-----------3--0-----------|--1-----------3--3-----1--|


  E  E  E  E  E  E  E  E     E  E  E  E  E  E  E  E   
--7--------5--8--------8--|-----------5--3-----------|
--------------------------|--8-----------------------|
--7--------5--9--------9--|--------------------------|
--------------7--7--------|--0--0--------------------|
--7--7-----7-----------7--|--------------------------|
--------------------------|-----------5--3--3-----3--|


  E  E  E  E  E  E  E  E     E  E  E  E  E  E  E  S S  
--------------------------|---------------------------|
--1--------------------3--|--1------------------------|
--------------2-----------|--------------0--------0-2-|
--------------------------|---------------------------|
-----------3-----------3--|--1--1--------1--1---------|
--1--1--------1--1--------|-----------1-----------1---|


  E  E  E  E  E  E  E  E     E  E  E  E  E  E  E  E   
--------------------------|--------------------------|
-----------------------1--|--3--0--------------------|
--0-----------0-----0-----|--------0-----------------|
--------------------------|-----------2--------------|
-----------3-----3-----3--|--0--0--------0--0--------|
--0--0--------0--0--------|-----------0-----------0--|


  E  E  E  E  E  E  E  E     E  E  E  E  E  E  E  S  S  
--0--------------------1--|--0-------------------------|
--1-----------3--------3--|--1-----------1--------1h-3-|
--------------4-----------|--------------2-------------|
-----0-----------0--------|--0--0--------0--0-----0----|
--0--------0--0--------0--|-----------0----------------|
--------------------------|----------------------------|


  E  E  E  E  E  E  E  E     E  E  E  E  E  E  E  E   
-----------------------0--|--------------------------|
--3-----------1--0--1--1--|--3-----------------------|
--0-----------2--0--2-----|--4--------0--------------|
-----------0-----------0--|-----------0--------------|
--------------------------|--------------------------|
--3--3--------3--3--------|--3--3--------3--3-----3--|


  E  E  E  E  E  E  E  E     E  E  E  E  E  E  E  E   
--------------------------|--------------------------|
-----3--3--------0--0-----|-----1--1-----------------|
-----4--4--------0--0-----|-----2--2--------2--2-----|
-----------------2--2-----|-----3--3--------3--3-----|
--3--3--------3--3--------|--3--3--------3--3--3-----|
-----------3-----------3--|-----------3-----------3--|


  E  E  E  E  E  E  E  E     E  E  E  E  Q    E  E     E  E  E  E  E  E  E  E   
--------------------------|-------------------3-----|--0-----------------------|
-----0--0-----------------|-------------------------|--1-----------------3-----|
-----0--0--------0--0-----|-----2--2----------------|--------------------------|
-----2--2--------2--2-----|-----3--3-----3----------|--------------------------|
--3--3--------3--3--3-----|--3--3--3-----5----------|--3--3--L-----3--3--------|
-----------3-----------3--|-----------3----------3--|-----------3-----------3--|


  E  E  E  E  E  E  E  E     E  E  E  E  E  E  E  E   
--0-----------------3-----|--0-----------------------|
--0-----------------------|--------------------3-----|
--------------------------|--2-----------------------|
--------------------------|--------------------------|
--3--3--L-----3--3--------|--3--3--L-----3--3--------|
-----------3-----------3--|-----------3-----------3--|


  E  E  E  E  E  E  E  E       E  E  E  E  E  E  E  E   
--0-----------------------||---------------------------|
--1-----------------------||---------------------------|
--------------------------||*--------------------------|
--------------------------||*--------------------------|
--3--3--L-----3--3--------||---3--3--------3--3--------|
-----------3-----------3--||------------3-----------3--|


  E  E  E  E  E  E  E  E     E  E  E  E  E  E  E  S S  
--------------------------|---------------------------|
--------------------------|-----1---------------------|
--------------------------|--0-----0------------------|
--------------------------|-----------2-----2-------0-|
--3--3--------3--3--------|--3--3--------3--------3---|
-----------3-----------3--|-----------3--0------------|


  E  E  E  E  E  E  E  E     E  E  E  E  E  E  E  S S  
--------------------------|---------------------------|
--------------------------|---------------------------|
--------------------------|--0--0--0--2---------------|
--2--------0--2-----0-----|-------------------------0-|
-----3--3--3--------------|-----------3--3--0-----3---|
--1--1--------3--3-----3--|--0--0--------5------------|


  E  E  E  E  E  E  E  E     E  E  E  E  E  E  E  S  S  
--------------------------|-----------0----------------|
--------------------------|-----1--------1--------1h-3-|
--------------------------|--0-----0-------------------|
--0--0-----0--2-----0-----|----------------------------|
--7--7--7--8--------------|--3--3-----------------3----|
--------------3--3-----3--|-----------3--0--0----------|


  E  E  E  E  E  E  E  E     E  E  E  E  E  E  E  S S  
--0-----------0-----------|--3--5--3--0-----------0-1-|
-----1--1--3--------3-----|--------------1------------|
--------------------------|---------------------------|
--------------------------|---------------------------|
-----------3--------------|--------------0--0-----0---|
--1--1--------3--3-----1--|--0--0-----0---------------|


  E  E  E  E  E  E  E  E     E  E  E  E  E  E  E  E   
--3--3--3--5--3-----1-----|--------------------------|
--5--5--5--6--5-----3-----|-----------------------1--|
--------------------------|--0--0--0--0--0-----0-----|
--0--0--------------------|--------------------------|
-----------0--------------|--1--1-----3-----3-----3--|
--------------3--3-----3--|--------------1--1--------|


  E  E  E  E  E  E  E  E     E  E  E  E  E  E  E  E   
--0-----------------------|--------------------------|
-----1--------------------|-----------------------1--|
--------0-----------------|--0--0--0--0--0-----0-----|
-----------2--------------|--------------------------|
--1--1--------1--1-----1--|-----------3-----3-----3--|
-----------1--------------|--0--0--------0--0--------|


  E  E  E  E  E  E  E  E     E  E  E  E  E  S S E  E   
--0-----------------------|--3--8--3--0-------0-L--1--|
-----0--------------------|--------------3------------|
--------0-----------------|---------------------------|
-----------2--------------|--0--0--------0--0---------|
--0--0--------0--0--------|-----------0------------0--|
-----------0-----------0--|---------------------------|


  S S E  E  S S E  E  E  E     E  E  E  E  E  E  E  E   
--3-5-3--L--3-5-3-----0-----|--0--------------------0--|
-------------------------3--|-----1--L-----1--0--1--1--|
----------------------------|-----2--L-----2--0--2-----|
-------------------0-----0--|-----------0-----------0--|
--0---------0---0-----------|--------------------------|
------3---------------------|--3-----------3--3--------|


  E  E  E  E  E  E  E  E     E  E  E  E  E  E  E  E   
--------------------------|--------------------------|
--3-----------------------|-----3--3--------0--0-----|
--4--------0--------------|-----4--4--------0--0-----|
-----------0--------------|-----------------2--2-----|
--3--3--L-----3--3--------|--3--3--------3--3--------|
-----------3-----------3--|-----------3-----------3--|


  E  E  E  E  E  E  E  E     E  E  E  E  E  E  E  E   
--------------------------|--------------------------|
-----1--1-----------------|-----0--0-----------------|
-----2--2--------2--2-----|-----0--0--------0--0-----|
-----3--3--------3--3-----|-----2--2--------2--2-----|
--3--3--------3--3--3-----|--3--3--------3--3--3-----|
-----------3-----------3--|-----------3-----------3--|


  E  E  E  E  E  E  E  S S    E  E  E  E  E  E  E  E   
-----------------------3-1-|--0-----------------------|
---------------------------|--1-----------------------|
-----2--2------------------|--------------------------|
-----3--3--------3--3------|--------------------------|
--3--3--3-----3--5--5------|--3--3--L-----3--3--L-----|
-----------3-------------3-|-----------3-----------3--|


  E  E  E  E  E  E  E  E     E  E  E  E  E  E  E  E   
--------------------------|--------------------------|
--3-----------------------|--1-----------------------|
--4-----------------------|--2-----------------------|
--------------------------|--------------------------|
--3--3--L-----3--3--L-----|--3--3--L-----3--3--L-----|
-----------3-----------3--|-----------3-----------3--|


  E  E  E  E  E  E  E  E     
---------------------------||
--3------------------------||
--4-----------------------*||
--------------------------*||
--3--3--L-----3--3--L------||
-----------3-----------3---||




Duration Legend
---------------
W - whole
H - half
Q - quarter
E - 8th
S - 16th
T - 32nd
X - 64th
. - note dotted
|-n-|  - n-tuplets


Tablature Legend
----------------
L - tied note
x - dead note
g - grace note
(n) - ghost note
> - accentuded note
NH - natural harmonic
AH - artificial harmonic
TH - tapped harmonic
SH - semi harmonic
PH - pitch harmonic
h - hammer on
p - pull off
b - bend
br - bendRelease
pb - preBend
pbr - preBendRelease
brb - bendReleaseBend
n/ - tremolo bar dip
n - tremolo bar dive
-/n - tremolo bar Release up
/n - tremolo bar inverted dip
/n - tremolo bar return
-n - tremolo bar Release down
S - shift slide
s - legato slide
/ -  slide into from below or out of upwards
 -  slide into from above or out of downwards
~ - vibrato
W - wide vibrato
tr - trill
TP - tremolo picking
T - tapping
S - slap
P - pop
< - fade in
^ - brush up
v - brush down

Leave a Comment

Your email address will not be published. Required fields are marked *

Scroll to Top