Pallet Town (Pokémon Red & Blue & Yellow) Guitar Tab

Pokémon- Pallet Town
Pokémon Red and Blue
Junichi Masuda
X-PokeTab-X
29/01/11

e|-----------3-0-2-0---------------------------------|
B|--3-1-0------------3---0-------0-1---------0--1-0--|
G|--------2----------------0-0-2---------0-2--------2|
D|-------------------------------------4-------------|
A|---------------------------------------------------|
E|---------------------------------------------------|

e|----------3-2-2-3-0--------------------------------|
B|--3-1-0-1------------3-3--1-0-----3-1-0------------|
G|------------------------------2-0--------2-0---0-2-|
D|---------------------------------------------------|
A|---------------------------------------------------|
E|---------------------------------------------------|

e|---------------------------------------------------|
B|-0-1-3-1-0-------0-1-1-3-1-3--1-3-0---0---------0--|
G|-----------0--2-------------------------2-0-2-----2|
D|----------------------------------------------2----|
A|---------------------------------------------------|
E|---------------------------------------------------|

e|---------------------------------------------------|
B|-----------0-0-------------------------------------|
G|-0------0------2-2---------------------------------|
D|---2--4--------------------------------------------|
A|---------------------------------------------------|
E|---------------------------------------------------|

Leave a Comment

Your email address will not be published. Required fields are marked *

Scroll to Top